Oops, an error
Loading. Please wait.
We have an official I Hate Everything About You tab made by UG professional guitarists. Check out the tab »
×
10,311 views 411 this week
9 commentsread comments
1 2 3 4 5
x 7
add to favorites
launch autoscroll
font size
0
reset
how to read this tab
guitar tuner
backing track
0:00
0:00
Autoscroll
slow
fast
+/-
esc
set tempo
stop
Author
THREE DAYS GRACE - I HATE EVERYTHING ABOUT YOU

                               Verse

|-------|-------|--------|--------|--------|
|-------|-------|--------|--------|--------|
|----6~-|-----6-|---4-6~-|-----6~-|---4-6~-|   (repeate the last 2 measures 
|----6~-|-----6-|---4-6~-|-----6~-|---4-6~-|    for the rest of the verses)
|-4-4---|----4--|--0-----|----4---|--0-----|
|-4-4---|-0h4---|-0------|-0h4----|-0------|
 (x1)     (x3)    (x4)      (x4)     (x4)



    Pre Chorus

|-----------------|
|-----------------|
|-----------------|
|-4~---0~---4~----|
|-2~---0~---4~----|
|------0~---4~----|


                           Chorus

|---------------------------------------------------------|
|---------------------------------------------------------|
|---------------------------------------------------------|
|-4-4--0-0--2-2-2-0-0-0----4-4-4-4-x-0-0-0-0-x--2-2-2>7-6-|
|-4-4--0-0--2-2-2-0-0-0----4-4-4-4-x-0-0-0-0-x--2-2-2>7-6-|
|-4-4--0-0--2-2-2-0-0-0----4-4-4-4-x-0-0-0-0-x--2-2-2>7-6-|


                      Bridge

|----------------------------------------------------------------------------|
|----------------------------------------------------------------------------|
|----------------------------------------------------------------------------|
|----------------------------------------------------------------------------|
|--------------------------------------------------------------------------2~|
|-4--5--7--4--5--7--4--5--7--4--5p4-0--4--5--7--4--5--7--4--5--7--4--5p4-0-2~|


Im pretty sure this is right.
  Johny joe
Suggest correction
comments
print report bad tab
9 comments total. Showing first comments.
0 reply
Xx_banx 10 Nov 29, 2003 07:00 PM

finaly one that sounds right
all the other ones have the same riff over and over the stupid braindead tonedef ***s

0 reply
plrdsmthdude27 20 Dec 03, 2003 07:00 PM

hey good tab for the intro but the chorus and bridge are this:
e--------------------------------------------------------------------
b--------------------------------------------------------------------
g--------------------------------------------------------------------
d-4-4--0-0--7-7-7-7-7--2-2-2-2-2--4-4-4-4-4--4-0-0-0-0-0--2-2-2-2-2--
a-4-4--0-0--7-7-7-7-7--2-2-2-2-2--4-4-4-4-4--4-0-0-0-0-0--2-2-2-2-2--
d-4-4--0-0--7-7-7-7-7--2-2-2-2-2--4-4-4-4-4--4-0-0-0-0-0--2-2-2-2-2--

e--------------------------------------------------------------------
b--------------------------------------------------------------------
g--------------------------------------------------------------------
d-7--6---------------------------------------------------------------
a-7--6---------------------------------------------------------------
d-7--6---------------------------------------------------------------

Bridge:
d6--7--9--6--7--9--6--7--9--6--7p6--2|do 2x end on:|d-----------
a------------------------------------| |a--4--------
d------------------------------------| |d-----------
i know it kinda looks crazy, but if u play it with the song it sounds exactly 100% right. but the intro is perfect, Good tab

0 reply
plrdsmthdude27 20 Dec 03, 2003 07:00 PM

oops! it;s supposed to say: do 2x end on|d-------------
|a--4----------
|d-------------

guest
You may want to rate the tab now too:
select rating
Wanna post a correction for this tab? Suggest correction