Oops, an error
Loading. Please wait.

I Hate Everything About You Bass Tab

version 3
7,663 views 9 this week
8 commentsread comments
1 2 3 4 5
x 11
add to favorites
launch autoscroll
font size
0
reset
guitar tuner
Autoscroll
slow
fast
+/-
esc
set tempo
stop
Help us to improve Ultimate-Guitar.com Take our survey!
×
Author
-------------------------------------------------------------------------------
                           i hate everything about you - three days grace
-------------------------------------------------------------------------------

Tabbed By :strider_hein 

Tuning:dadg
this is my second tab so there are still some errors. this will probably give u the
main idea though.PLEASE RATE!

verse
bass comes in at 00:32
play this twice
G|-------------------------------------------------------------------------|
D|-------------------------------------------------------------------------|
A|-------------------------------------------------------------------------|
D|-444-4444-4444-4444-0000-0000-0000-0000----------------------------------|

pre-chorus
when adam sings the word "think" play the open note
G|-------------------------------------------------------------------------|
D|-------------------------------------------------------------------------|
A|-------------------------------------------------------------------------|
D|-4-------------------------0----h5---------------------------------------|

note:during the chorus when u play the notes A(0) F#(4) and D(0) play the second
two notes quicker than the first two. e.g.00is slower than the next 00 which is
played quicker.
chorus
play twice
G|-------------------------------------------------------------------------|
D|-------------------------------------------------------------------------|
A|------------0000---------------------------------------------------------|
D|-44---00--------2222-4444-0000---2222/76---------------------------------|

verse
play this twice
G|-------------------------------------------------------------------------|
D|-------------------------------------------------------------------------|
A|-------------------------------------------------------------------------|
D|-444-4444-4444-4444-0000-0000-0000-0000----------------------------------|

pre-chorus
same as before play when adam sings think
G|-------------------------------------------------------------------------|
D|-------------------------------------------------------------------------|
A|-------------------------------------------------------------------------|
D|-4-------------------------0----h5---------------------------------------|

chorus
play twice
G|-------------------------------------------------------------------------|
D|-------------------------------------------------------------------------|
A|------------0000---------------------------------------------------------|
D|-44---00--------2222-4444-0000---2222/76---------------------------------|

bridge
(let these notes ring)
G|-------------------------------------------------------------------------|
D|-------------------------------------------------------------------------|
A|-------------------------------------------------------------------------|
D|--4--------------------6-------------7------------------10---------------|

chorus
play four times
G|-------------------------------------------------------------------------|
D|-------------------------------------------------------------------------|
A|-----------0000----------------------------------------------------------|
D|-44---00-------2222--4444-0000---2222/76---------------------------------|

| /  slide up
| \  slide down
| h  hammer-on
| p  pull-off
| ~  vibrato
| +  harmonic
| x  Mute note
============================================================================

this is the end of my tab and i do believe it is pretty close. look out for
definatly maybe by fm static coming soon. if u want another tab by me try
phenomenon by thousand foot krutch. BUY THEIR ALBUMS THEY ARE AN AMAZING BAND. 
rock n roll.
Suggest correction
comments
print report bad tab
8 comments total. Showing first comments.
-2 reply
commonlerror 82 Apr 15, 2005 12:00 AM

dude this is terrible... first of all i only came for the chorus but the actual intro goes...

e-------------------------------------X5
B-------------------------------------X5
G---1---1---1---1---------------------X5
D-------------------------------------X5
A--4---4---4---4---4/6--4/6--4/6--4/6-X5
D-4--24--24--24---7---27---27---27----X5

I have no idea how you got 444 4444 it sounds nothing like it... you might wanna change your intro i dont know about your chorus though

+1 reply
unown 10 May 08, 2006 05:10 PM

to the guy above. shut up. this is a bass tab not a friggin guitar tab.

0 reply
outoforder123 50 Sep 12, 2006 02:46 AM

u r the biggest dickhead ever friggen idiot

guest
You may want to rate the tab now too:
select rating
Wanna post a correction for this tab? Suggest correction