Oops, an error
Loading. Please wait.

I Hate Everything About You Bass Tab

version 4
21,739 views 30 this week
4 commentsread comments
1 2 3 4 5
x 27
add to favorites
launch autoscroll
font size
0
reset
guitar tuner
Autoscroll
slow
fast
+/-
esc
set tempo
stop
Help us to improve Ultimate-Guitar.com Take our survey!
×
Difficulty
Tuning
novice
D A D G B E
Intro:
No Bass

(0:33) Verse 1:                                                      x2  
G[---------------------------------|----------------------------------]
D[---------------------------------|----------------------------------]
A[---------------------------------|----------------------------------]
D[-44444-0-44444-0-44444-0-44444-0-|-00000-0-00000-0-00000-0-00000-0--]
            
(0:54) Pre-Chorus 1:
G[----------------------------------------]
D[----------------------------------------]
A[------------------------------------5~--]
D[-2~------------------0~-----------------]
      
(1:05) Chorus 1:                                                     x2
G[----------------------------------|---------------------------------]
D[----------------------------------|---------------------------------]
A[----------------------------------|---------------------------------]
D[-44-----00-----777777-7---222222--|-444444-4---000000--222222---7-6-]
      
(1:27) Verse 2 x3
(1:59) Pre-Chorus 2
(2:10) Chorus 2

(2:31) Bridge:
G[-----------------|---------------|-----------------|-----------------]
D[-----------------|---------------|-----------------|-----------------]
A[-----------------|---------------|-----------------|-----------------]
D[-0-0-0-0-0-0-0-0-|-2-2-2-2-2-2-2-|-4-4-4-4-4-4-4-4-|-2-2-2-2-2-2-2-2-]

(2:53) Pre-Chorus 3:
G[---------]
D[---------]
A[---------]
D[--4~-----]

(2:58) Chorus 3 x4

(3:41) Ending
G[---------]
D[---------]
A[---------]
D[--4~-----]
Suggest correction
comments
print report bad tab
4 comments total. Showing first comments.
0 reply
outcast357 10 Sep 22, 2010 09:51 PM

these tabs are dead on, man

0 reply
BassMasterDak 10 Mar 01, 2013 04:49 PM

is this supposed to be 4 string? cuz if so the strins are supposed to be:

E

0 reply
GAbrielPImenta 10 Mar 01, 2013 07:45 PM

In this case you have to drop the string E to D, would be useful a tuner if you want

guest
You may want to rate the tab now too:
select rating
Wanna post a correction for this tab? Suggest correction