Oops, an error
Loading. Please wait.

I Hate Everything About You Bass Tab

version 5
version 5
13,960 views 1 this week
1 commentread comment
1 2 3 4 5
excellent!
x 7
add to favorites
launch autoscroll
font size
0
reset
guitar tuner
Tab Pro tools
  • play this tab
  • loop segment
  • change instrument
  • show fretboard
  • metronome
×
Best way to learn
"I Hate Everything About You"
Autoscroll
slow
fast
+/-
esc
set tempo
stop
Contributor
Difficulty
intermediate
Three Days Grace - I hate everything about you

bass tab

by : doky 2007
taquilleros_de_sudamerica_maroyu_el_grupo_tropical_del_momento@hotmail.com

5-stringed bass
G D A E B

   VERSO
G-|-----------------------------------------------------------|
D-|-----------------------------------------------------------|
A-|-----------------------------------------------------------|
E-|-222222-222222-222222-222222-2-----------------------------|
B-|-------3------3------3--------3333330333333033333303333330-|
                                                                              

   PRE-CORO
G-|-------------------|
D-|-------------------|
A-|-------------------|
E-|-0-----------------|
B-|----------3--------|
                                                                              

   CORO
G-|------------------------|-------------------------------|
D-|------------------------|-------------------------------|
A-|------------------------|-------------------------------|
E-|-22----5-55555-0-00-000-|-2-2222-------00000-00-5---4---|
B-|----33------------------|--------33333------------------|
                                                                              

   MIDDLE
G-|-------------------------|-------------------------|-------|
D-|-------------------------|-------------------------|-------|
A-|-5-555/7-777/9-999\7-777-|-------------------------|-------|
E-|-------------------------|-------------------------|-2-----|
B-|-------------------------|-3-333/5-555/7-777\5-555-|-------|
                                                                              

   FIN
G-|------------|
D-|------------|
A-|------------|
E-|-2----------|
B-|------------|

Mando salutos Al Antoney, La Andy, La Yarit y su amiga, porque cuando les fui a recoger a La Andy
y a La Yarets de El Alto, El Antoney se oculto en la parte de atras de mi auto y como las chicas
no sabian que estaba con mi cuate, se subieron normal, pero tambien vino su amiga y se sentaron atras con
La Yarits y adelante La Andy. cuando le di la señal El Antoney salio gritando y golpeando el asiento y 
las 2 chicas se asustaro huaaaaaaso ademas de gritar huaso tambien.

doky2007
                                                                              

comments
print report bad tab
1 comment total.
0 reply
ApothakarY wrote on January 6 2014, 09:13 pm

Finally, a TRUE bass tab for this song. Thanks man.

I want to post or [tab]
guest
You may want to rate the tab now too:
select rating
Please do not post tabs as comments. Select "correction" instead!