Oops, an error
Loading. Please wait.

Its All Over Bass Tab

version 1
version 1

Whole song

Interactive

6,197 views 3 this week
7 commentsread comments
1 2 3 4 5
x 6
add to favorites
launch autoscroll
font size
0
reset
guitar tuner
Autoscroll
slow
fast
+/-
esc
set tempo
stop
Help us to improve Ultimate-Guitar.com Take our survey!
×
Author
Tuning
C G C F A D
Intro
G|--------------------------------------|
D|--------------------------------------|
A|--------------------------------------|
C|---0-0---0-7-7---7-3-3---3-2-3-2-3----|x3

G|--------------------------------------|
D|--------------------------------------|
A|--------------------------------------|
C|--5-5-5-5-5-5-5-5-----------------3---|x1

Verse
G|--------------------------------------|
D|--------------------------------------|
A|--------------------------------------|
C|--0000-----7777-----3333-----2323-----|x3

G|--------------------------------------|
D|--------------------------------------|
A|--------------------------------------|
C|--5-5-5-5-5-5-5---3-3-3-3-3-3-3-------|x1

G|--------------------------------------|
D|--------------------------------------|
A|--------------------------------------|
C|--0000-----7777-----3333-----2323-----|x3

Pre Chorus
G|--------------------------------------|
D|--------------------------------------|
A|--------------------------------------|
C|--5-5-5-5-5-5-5-------8-------10------|x1

Chorus
G|--------------------------------------------------|
D|--------------------------------------------------|
A|--------------------------------------------------|
C|-0---8---5-5-5-5-5-5-5---10-10-10-10-10-10-----3--|x2

Verse
G|--------------------------------------|
D|--------------------------------------|
A|--------------------------------------|
C|--0000-----7777-----3333-----2323-----|x3

G|--------------------------------------|
D|--------------------------------------|
A|--------------------------------------|
C|--5-5-5-5-5-5-5---3-3-3-3-3-3-3-------|x1

G|--------------------------------------|
D|--------------------------------------|
A|--------------------------------------|
C|--0000-----7777-----3333-----2323-----|x3

Pre Chorus
G|--------------------------------------|
D|--------------------------------------|
A|--------------------------------------|
C|--5-5-5-5-5-5-5-------8-------10------|x1

Chorus
G|--------------------------------------------------|
D|--------------------------------------------------|
A|--------------------------------------------------|
C|-0---8---5-5-5-5-5-5-5---10-10-10-10-10-10-----3--|x2

Break
G|--------------------------------------|
D|--------------------------------------|
A|--------------------------------------|
C|---0-0---0-7-7---7-3-3---3-2-3-2-3----|x3

G|--------------------------------------|
D|--------------------------------------|
A|--------------------------------------|
C|--5-5-5-5---------8-8-8-8-------------|x1

During The Solo
G|--------------------------------------------------|
D|--------------------------------------------------|
A|--------------------------------------------------|
C|-0---8---5-5-5-5-5-5-5---10-10-10-10-10-10-----3--|x2

Rest

Pre Chorus
G|--------------------------------------|
D|--------------------------------------|
A|--------------------------------------|
C|--5-5-5-5-5-5-5----10-10-10-10-10-----|x1

Chorus
G|--------------------------------------------------|
D|--------------------------------------------------|
A|--------------------------------------------------|
C|-0---8---5-5-5-5-5-5-5---10-10-10-10-10-10-----3--|x3

Outro
G|--------------------------------------|
D|--------------------------------------|
A|--------------------------------------|
C|---0-0---0-7-7---7-3-3---3-2-3-2-3----|x1

And thats it. Its really easy to play.


Suggest correction
comments
print report bad tab
7 comments total. Showing first comments.
0 reply
cldntthnkofasn 72 Sep 04, 2006 10:01 PM

please comment my tab. also check out my riot tab.

0 reply
U B the band 3,023 Sep 06, 2006 12:21 PM

well i don't play bass....i have one but i don't play it....this tab looks good but doesn't Three Days Grace play with a 5 string bass? but it still sounds alright and it looks like it was based off of my tab -U B the band

0 reply
U B the band 3,023 Sep 06, 2006 12:23 PM

ph and i give 5 stars

guest
You may want to rate the tab now too:
select rating
Wanna post a correction for this tab? Suggest correction