Oops, an error
Loading. Please wait.

Its All Over tab

version 1
version 1

Whole song

Interactive

27,167 views 9 this week
10 commentsread comments
1 2 3 4 5
x 3
add to favorites
×
Save as Personal and add changes to this tab that will be seen only by you. Learn more ›
×
You can save this tab as Personal to edit and correct it or add notes. All changes will be seen only by you. Learn more »
launch autoscroll
font size
0
reset
how to read this tab
guitar tuner
edit
Autoscroll
slow
fast
+/-
esc
set tempo
stop
-------------------------------------------------------------------------------
                             It's all Over - Three Days Grace
-------------------------------------------------------------------------------
Tabbed by : wildbil
Email: guyatvideostore@yahoo.com

Tuning: Dropped C tuning (drop the low E to a D and then every string drops a whole step)

intro:

D|------------------------------------|
A|------------------------------------|
F|------------------------------------|
C|0-0---0-7-7---7-3-3---3-2-3-2-3-----|  X3
G|0-0---0-7-7---7-3-3---3-2-3-2-3-----|
C|0-0---0-7-7---7-3-3---3-2-3-2-3-----|

D|------------------------------------|
A|------------------------------------|
F|------------------------------------|
C|5-5-5-5-5-5-5-0-3-------------------|
G|5-5-5-5-5-5-5-0-3-------------------|
C|5-5-5-5-5-5-5-0-3-------------------|


verse:
 palm muted
D|---------------------|     |------------------|
A|---------------------|     |------------------|
F|---------------------|     |------------------|
C|----7777-------------| X3  |55--5550----------|
G|5555----88887878-----|     |--------88887878--|
C|---------------------|     |------------------|

pre chorus:
let chords ring
  It's all over for, It's all over for
D|--------------------------------------------------------|
A|--------------------------------------------------------|
F|--------------------------------------------------------|
C|5------------------8-------------10---------------------|
G|5------------------8-------------10---------------------|
C|5------------------8-------------10---------------------|

chorus:
  You   for you   when your on the edge and fallin off, its all over for
D|---------------------------------------------------------------------------|
A|---------------------------------------------------------------------------|
F|---------------------------------------------------------------------------|
C|0---------8---------------5---------------------------10-----------3-------| 
G|0---------8---------------5---------------------------10-----------3-------|
C|0---------8---------------5---------------------------10-----------3-------|


| /  slide up
| \  slide down
| h  hammer-on
| p  pull-off
| ~  vibrato
| +  harmonic
| x  Mute note
===============================================================================

            
            
Suggest correction
Creating personal tab
Creating personal tab
You can edit any tab online and save it as your Personal.

You can edit, replace or remove any tab part or add personal notes – all changes will be seen only by you.

Personal tabs can be accessed anytime from any device, even offline.
Learn more »
Give kudos to tab author, rate the tab!
1 2 3 4 5
comments
print report bad tab
10 comments total. Showing first comments.
0 reply
RS-GUITARIST 114 Jun 05, 2006 12:52 PM

I recall someone saying that its drop D.

0 reply
jaames 1,351 Jun 09, 2006 11:23 PM

I'm surprised they accepted my tab, I didn't even see this one before I submitted my tab, mine's pretty similar to this...

0 reply
jaames 1,351 Jun 09, 2006 11:24 PM

and RS_GUITARIST, it's in drop C, trust me.

guest
Wanna post a correction for this tab? Suggest correction