Oops, an error
Loading. Please wait.

Its All Over Bass Tab

version 2
version 2

Whole song

Interactive

704 views 1 this week
no commentswrite comment
1 2 3 4 5
3 more votes to show rating
add to favorites
launch autoscroll
font size
0
reset
guitar tuner
Autoscroll
slow
fast
+/-
esc
set tempo
stop
Help us to improve Ultimate-Guitar.com Take our survey!
×
this is a fun\fast song to play.

intro 3x

g|-------------------------------|
d|-------------------------------|
a|33--3-------11---1-0-1-0-1-----|
e|------33--3--------------------|             



1x

g|------------------------------|
d|---------------------------1--|
a|------------------------------|
e|1-1-1-1-------1-1-1-1---------|


3x

g|----------------------|
d|-----------1111---0101|
a|--3333----------------|
e|-------3333-----------|

1x

g|--------------------------------|
d|------------------1-1-1-1-1-1-1-|
a|--------------------------------|
e|1-1-1-1--1-1-1------------------|



3x

g|----------------------|
d|-----------1111---0101|
a|--3333----------------|
e|-------3333-----------|






1x

g|-----------------------------|
d|-----------------------------|
a|-------------------------1---|
e|1-1-1-1-------1-1-1--4-------|


2x
g|------------------------------------------|
d|---------------------------------------1--|
a|----3-------------------1-1-1---1-1-1-----|
e|------4--1-1-1-1--1-1-1-------------------|



3x
g|----------------------|
d|-----------1111---0101|
a|--3333----------------|
e|-------3333-----------|






g|--------------------------------|
d|------------------1-1-1-1-1-1-1-|
a|--------------------------------|
e|1-1-1-1--1-1-1------------------|


3x
g|----------------------|
d|-----------1111---0101|
a|--3333----------------|
e|-------3333-----------|





1x

g|-----------------------------|
d|-----------------------------|
a|-------------------------1---|
e|1-1-1-1-------1-1-1--4-------|





2x
g|------------------------------------------|
d|---------------------------------------1--|
a|----3-------------------1-1-1---1-1-1-----|
e|------4--1-1-1-1--1-1-1-------------------|


3x

g|-------------------------------|
d|-------------------------------|
a|33--3-------11---1-0-1-0-1-----|
e|------33--3--------------------|             


g|----------------------|
d|----------------------|
a|----------------------|
e|1-1-1-1--4-4-4-4------|

solo

2x
g|------------------------------------------|
d|---------------------------------------1--|
a|----3-------------------1-1-1---1-1-1-----|
e|------4--1-1-1-1--1-1-1-------------------|



1x

g|-----------------------------|
d|-----------------------------|
a|-------------------------1---|
e|1-1-1-1-------1-1-1--4-------|



3x
g|------------------------------------------|
d|---------------------------------------1--|
a|----3-------------------1-1-1---1-1-1-----|
e|------4--1-1-1-1--1-1-1-------------------|

1x

g|-------------------------------|
d|-------------------------------|
a|33--3-------11---1-0-1-0-1-----|
e|------33--3--------------------|             

Suggest correction
Give kudos to tab author, rate the tab!
1 2 3 4 5
comments
print report bad tab
guest
You may want to rate the tab now too:
select rating
Wanna post a correction for this tab? Suggest correction