Oops, an error
Loading. Please wait.

Its All Over tab

version 2
version 2

Whole song

Interactive

16,442 views 1 this week
17 commentsread comments
1 2 3 4 5
x 16
add to favorites
×
Save as Personal and add changes to this tab that will be seen only by you. Learn more ›
×
You can save this tab as Personal to edit and correct it or add notes. All changes will be seen only by you. Learn more »
launch autoscroll
font size
0
reset
how to read this tab
guitar tuner
edit
Autoscroll
slow
fast
+/-
esc
set tempo
stop
Artist : Three Days Grace
Album  : One-X 
Song   : Its All Over
Tuning : Drop C

  Intro
  Moderate Rock Q=83
  D5    A5    F5    E5F5E5F5  D5    A5    F5    E5F5E5F5
 4/4
  Gtrs I, II
|---------------------------|---------------------------|
|---------------------------|---------------------------|
|---------------------------|---------------------------|
|-0-0-0-7-7-7-3-3-3-2-3-2-3-|-0-0-0-7-7-7-3-3-3-2-3-2-3-|
|-0-0-0-7-7-7-3-3-3-2-3-2-3-|-0-0-0-7-7-7-3-3-3-2-3-2-3-|
|-0-0-0-7-7-7-3-3-3-2-3-2-3-|-0-0-0-7-7-7-3-3-3-2-3-2-3-|


  D5    A5    F5    E5F5E5F5   G5            F5
|---------------------------|---------------------||
|---------------------------|---------------------||
|---------------------------|---------------------||
|-0-0-0-7-7-7-3-3-3-2-3-2-3-|--5-5-5-5-5-5-5-3----||
|-0-0-0-7-7-7-3-3-3-2-3-2-3-|--5-5-5-5-5-5-5-3----||
|-0-0-0-7-7-7-3-3-3-2-3-2-3-|--5-5-5-5-5-5-5-3----||


 Verse
  $
  N.C.
  PM-------------------------------------------------------------|
|---------------------------------|--------------------------------|
|---------------------------------|--------------------------------|
|---------------------------------|--------------------------------|
|---------------------------------|--------------------------------|
|-5-5-5-5-------------------------|--5-5-5-------------------------|
|---------7-7-7-7-3-3-3-3-2-3-2-3-|--------7-7-7-7-3-3-3-3-2-3-2-3-|


  PM---------------------------------M--------------------------|
|---------------------------------|-------------------------------|
|---------------------------------|-------------------------------|
|---------------------------------|-------------------------------|
|---------------------------------|-------------------------------|
|-5-5-5-5-------------------------|-------------------------------|
|---------7-7-7-7-3-3-3-3-2-3-2-3-|--5-5-5-5-5-5-5--3-3-3-3-3-3-3-|


   PM----------------------------------------------
|-------------------------------------------------|
|-------------------------------------------------|
|-------------------------------------------------|
|-------------------------------------------------|
|--5--5--5--5-------------------------------------|
|--------------7--7--7--7--3--3--3--3--2--3--2--3-|
|
| Gtr II
|-10-10-10-10-10-10-10-10-10-10-10-10-10-10-10-10-|
|-------------------------------------------------|
|-------------------------------------------------|
|-------------------------------------------------|
|-------------------------------------------------|
|-------------------------------------------------|


 --------------------------------------------|
|-----------------------------------------------|
|-----------------------------------------------|
|-----------------------------------------------|
|-----------------------------------------------|
|---5--5--5-------------------------------------|
|------------7--7--7--7--3--3--3--3--2--3--2--3-|
|
|--10-10-10-10-10-10-10-10-10-10-10-10-10-10-10-|
|-----------------------------------------------|
|-----------------------------------------------|
|-----------------------------------------------|
|-----------------------------------------------|
|-----------------------------------------------|


   PM------------------------------|
|-------------------------------------------------|
|-------------------------------------------------|
|-------------------------------------------------|
|-------------------------------------------------|
|--5--5--5--5-------------------------------------|
|--------------7--7--7--7--3--3--3--3--2--3--2--3-|
|
|-10-10-10-10-10-10-10-10-10-10-10-10-10-10-10-10-|
|-------------------------------------------------|
|-------------------------------------------------|
|-------------------------------------------------|
|-------------------------------------------------|
|-------------------------------------------------|


                              To Coda
  G5                Bb5        C5
|-----------------|----------------------||
|-----------------|----------------------||
|-----------------|----------------------||
|-5-5-5-5-5-5-5-5-|-8----(8)---10--------||
|-5-5-5-5-5-5-5-5-|-8----(8)---10--------||
|-5-5-5-5-5-5-5-5-|-8----(8)---10--------||
|
|-----------------|----------------------||
|-----------------|----------------------||
|-----------------|----------------------||
|-5-5-5-5-5-5-5-5-|-8----(8)---10--------||
|-5-5-5-5-5-5-5-5-|-8----(8)---10--------||
|-5-5-5-5-5-5-5-5-|-8----(8)---10--------||


   Chorus
    D5                Bb5
    Gtr I
||------------------|-----------------|
||o-----------------|-----------------|
||------------------|-----------------|
||--0----0---0------|-8----8---8------|
||o-0----0---0------|-8----8---8------|
||--0----0---0------|-8----8---8------|
|
|   Gtr II
||------------------|-----------------|
||o-----10-----(10)-|-----10-----(10)-|
||--9---------------|-7---------------|
||------------------|-----------------|
||o-----------------|-----------------|
||------------------|-----------------|


                              D.S. al Coda
  G5                    C5
|---------------------|---------------------||
|---------------------|--------------------o||
|---------------------|--5-5-5-5-5-5--5-5---||
|-5-5-5--5-5-5-5---5--|--5-5-5-5-5-5--5-5---||
|-5-5-5--5-5-5-5---5--|--3-3-3-3-3-3--3-3--o||
|-5-5-5--5-5-5-5---5--|---------------------||
|
|---------------------|---------------------||
|-8-----10-------(10)-|--------------------o||
|---------------------|-10-------9----------||
|---------------------|--------------10-----||
|---------------------|--------------------o||
|---------------------|---------------------||


 Chorus II
  &
  D5                Bb5               G5                    C5
|-----------------|-----------------|---------------------|-------------------|
|-----------------|-----------------|---------------------|-------------------|
|-----------------|-----------------|---------------------|--5-5-5-5-5-5--5-5-|
|-0----0---0------|-8----8---8------|-5-5-5--5-5-5-5---5--|--5-5-5-5-5-5--5-5-|
|-0----0---0------|-8----8---8------|-5-5-5--5-5-5-5---5--|--3-3-3-3-3-3--3-3-|
|-0----0---0------|-8----8---8------|-5-5-5--5-5-5-5---5--|-------------------|
|
|-----------------|-----------------|---------------------|-------------------|
|-----10-----(10)-|-----10-----(10)-|-8-----10-------(10)-|-------------------|
|-9---------------|-7---------------|---------------------|-10-------9--------|
|-----------------|-----------------|---------------------|--------------10---|
|-----------------|-----------------|---------------------|-------------------|
|-----------------|-----------------|---------------------|-------------------|


  D5                Bb5               G5                    C5
|-----------------|-----------------|---------------------|------------------||
|-----------------|-----------------|---------------------|------------------||
|-----------------|-----------------|---------------------|--5-5-5-5-5-5-5-5-||
|-0----0---0------|-8----8---8------|-5-5-5--5-5-5-5---5--|--5-5-5-5-5-5-5-5-||
|-0----0---0------|-8----8---8------|-5-5-5--5-5-5-5---5--|--3-3-3-3-3-3-3-3-||
|-0----0---0------|-8----8---8------|-5-5-5--5-5-5-5---5--|------------------||
|
|                                                                        ~
|-----------------|-----------------|---------------------|------------------||
|-----10-----(10)-|-----10-----(10)-|-8-----10-------(10)-|------------------||
|-9---------------|-7---------------|---------------------|-10-------9-------||
|-----------------|-----------------|---------------------|------------------||
|-----------------|-----------------|---------------------|------------------||
|-----------------|-----------------|---------------------|--------------3---||


 Interlude
  D5    A5    F5    E5F5E5F5  D5    A5    F5    E5F5E5F5
  Gtrs I, II
|---------------------------|---------------------------|
|---------------------------|---------------------------|
|---------------------------|---------------------------|
|-0-0-0-7-7-7-3-3-3-2-3-2-3-|-0-0-0-7-7-7-3-3-3-2-3-2-3-|
|-0-0-0-7-7-7-3-3-3-2-3-2-3-|-0-0-0-7-7-7-3-3-3-2-3-2-3-|
|-0-0-0-7-7-7-3-3-3-2-3-2-3-|-0-0-0-7-7-7-3-3-3-2-3-2-3-|


  D5    A5    F5    E5F5E5F5  G5      Bb5
|---------------------------|-----------------||
|---------------------------|-----------------||
|---------------------------|-----------------||
|-0-0-0-7-7-7-3-3-3-2-3-2-3-|-5-5-5-5-8-8-8-8-||
|-0-0-0-7-7-7-3-3-3-2-3-2-3-|-5-5-5-5-8-8-8-8-||
|-0-0-0-7-7-7-3-3-3-2-3-2-3-|-5-5-5-5-8-8-8-8-||


 Guitar Solo
  D5                  Bb5
  Gtr I
|-------------------|------------------------------------------------|
|-------------------|------------------------------------------------|
|-------------------|------------------------------------------------|
|--0----------------|--8---------------------------------------------|
|--0----------------|--8---------------------------------------------|
|--0----------------|--8---------------------------------------------|
|
| Gtr II
|         ~~                                           ~~
|-18--18-17----(17)-|-13--12-----------------------------------------|
|-------------------|--------13----------------------------------8---|
|-------------------|-----------12-----------------------------7---7-|
|-------------------|--------------14-(14)b15r(14)-12-14--(14)-------|
|-------------------|------------------------------------------------|
|-------------------|------------------------------------------------|


  G5                      C5                        F5
|-----------------------|--------------------------------|
|-----------------------|--------------------------------|
|-----------------------|--5-5--5-----------5---5-5------|
|--5-5--5--5---5--5-5-5-|--5-5--5-----------5---5-5--3---|
|--5-5--5--5---5--5-5-5-|--3-3--3-----------3---3-3--3---|
|--5-5--5--5---5--5-5-5-|----------------------------3---|
|
|              ~~~~~~~~~~~~~~                        ~~
|-----------------------|-13---12-(12)b13-(12)-10--------|
|-11---11-10-(10)-------|---------------------------13---|
|-----------------------|--------------------------------|
|-----------------------|--------------------------------|
|-----------------------|--------------------------------|
|-----------------------|--------------------------------|


  D5                  Bb5
|-------------------|------------------------------------------------|
|-------------------|------------------------------------------------|
|-------------------|------------------------------------------------|
|--0----------------|--8---------------------------------------------|
|--0----------------|--8---------------------------------------------|
|--0----------------|--8---------------------------------------------|
|
|         ~~                                           ~~
|-18--18-17----(17)-|-13--12-----------------------------------------|
|-------------------|--------13----------------------------------8---|
|-------------------|-----------12-----------------------------7---7-|
|-------------------|--------------14-(14)b15r(14)-12-14--(14)-------|
|-------------------|------------------------------------------------|
|-------------------|------------------------------------------------|


  G5                                    C5             F5
|-------------------------------------|---------------------||
|-------------------------------------|---------------------||
|-------------------------------------|--5-5--5-5--5-5------||
|--5-5--5--5---5--5--5--------5-------|--5-5--5-5--5-5--3---||
|--5-5--5--5---5--5--5--------5-------|--3-3--3-3--3-3--3---||
|--5-5--5--5---5--5--5--------5-------|-----------------3---||
|
|              ~~~~
|----------------------------------12-|-13---12---10--------||
|-11---11-10-(10)------------13-15----|----------------13---||
|-------------------12-14-15----------|---------------------||
|-------------------------------------|---------------------||
|-------------------------------------|---------------------||
|-------------------------------------|---------------------||


 Bridge
  D5
                >
|-----------|-------------|---------|-----|
|-----------|-------------|---------|-----|
|-----------|-------------|---------|-----|
|--0--------|--(0)--------|---------|-----|
|--0--------|--(0)--------|---------|-----|
|--0--------|--(0)--------|---------|-----|
|
|               >
|-10--------|-(10)--------|---------|-----|
|-----------|-------------|---------|-----|
|-----------|-------------|---------|-----|
|-----------|-------------|---------|-----|
|-----------|-------------|---------|-----|
|-----------|-------------|---------|-----|


  Dmadd9                G5                Bb5
  Gtr III               Gtr I
                        PM------------------------------|
|-^0--------|---------|-----------------|-----------------||
|-^6--------|---------|-----------------|-----------------||
|-^7--------|---------|-----------------|-----------------||
|-^7--------|---------|-----------------|-----------------||
|-^5--------|---------|-5-5-5-5-5-5-5-5-|-8-8-8-8-8-8-8-8-||
|-----------|---------|-5-5-5-5-5-5-5-5-|-8-8-8-8-8-8-8-8-||
|
|                       PM--------------------------| ~
|-----------|---------|-----------------|-----------------||
|-----------|---------|-----------------|-----------------||
|-----------|---------|-----------------|-----------------||
|-----------|---------|-----------------|-----------------||
|-----------|---------|-5-5-5-5-5-5-5-5-|-8-8-8-8-8-8-----||
|-----------|---------|-5-5-5-5-5-5-5-5-|-8-8-8-8-8-8-3---||


   Out-Chorus
    D5                Bb5
||------------------|-----------------|
||o-----------------|-----------------|
||------------------|-----------------|
||--0----0---0------|-8----8---8------|
||o-0----0---0------|-8----8---8------|
||--0----0---0------|-8----8---8------|
|
||------------------|-----------------|
||o-----10-----(10)-|-----10-----(10)-|
||--9---------------|-7---------------|
||------------------|-----------------|
||o-----------------|-----------------|
||------------------|-----------------|


  G5                    C5
                                            3x
|---------------------|---------------------||
|---------------------|--------------------o||
|---------------------|--5-5-5-5-5-5--5-5---||
|-5-5-5--5-5-5-5---5--|--5-5-5-5-5-5--5-5---||
|-5-5-5--5-5-5-5---5--|--3-3-3-3-3-3--3-3--o||
|-5-5-5--5-5-5-5---5--|---------------------||
|
|                                           3x
|---------------------|---------------------||
|-8-----10-------(10)-|--------------------o||
|---------------------|-10-------9----------||
|---------------------|--------------10-----||
|---------------------|--------------------o||
|---------------------|---------------------||


 Outro
  D5    A5    F5    E5F5E5F5
|---------------------------|-----*|
|---------------------------|-----*|
|---------------------------|-----*|
|-0-0-0-7-7-7-3-3-3-2-3-2-3-|-----*|
|-0-0-0-7-7-7-3-3-3-2-3-2-3-|-----*|
|-0-0-0-7-7-7-3-3-3-2-3-2-3-|-----*|

--------------------------------------------------------------------------------

Tablature Legend
----------------
 h   - hammer-on
 p   - pull-off
 b   - bend
 pb  - pre-bend
 r   - bend release (if no number after the r, then release immediately)
 /\  - slide into or out of (from/to "nowhere")
 s   - legato slide
 S   - shift slide
 - natural harmonic
[n]  - artificial harmonic
n(n) - tapped harmonic
 ~   - vibrato
 tr  - trill
 T   - tap
 TP  - trem. picking
 PM  - palm muting
\n/  - tremolo bar dip; n = amount to dip
 \n  - tremolo bar down
 n/  - tremolo bar up
/n\  - tremolo bar inverted dip
 =   - hold bend; also acts as connecting device for hammers/pulls
 <> - volume swell (louder/softer)
 x   - on rhythm slash represents muted slash
 o   - on rhythm slash represents single note slash
Suggest correction
Creating personal tab
Creating personal tab
You can edit any tab online and save it as your Personal.

You can edit, replace or remove any tab part or add personal notes – all changes will be seen only by you.

Personal tabs can be accessed anytime from any device, even offline.
Learn more »
comments
print report bad tab
17 comments total. Showing first comments.
0 reply
jaames 1,351 Jun 09, 2006 11:45 PM

Whoever tabbed version 1, I didn't copy from you atol. I didn't even know there was a version 1 yet, my version is similar to version 1, only a few things are different.

0 reply
RS-GUITARIST 114 Jun 13, 2006 03:32 PM

awsome job

0 reply
gigson111 143 Jun 28, 2006 05:27 AM

solos way off....the BEGGINING should go sumthing like this it think...

|15h17h18--18-18-17b-------------------------------------------------|--------------------------------------------------------------------|--------------------------------------------------------------------|--------------------------------------------------------------------|--------------------------------------------------------------------|-------------------------------------------------------------------- thats what i think..thats only the beggining..its to hard to tab!

guest
You may want to rate the tab now too:
select rating
Wanna post a correction for this tab? Suggest correction