Oops, an error
Loading. Please wait.

Its All Over Bass Tab

version 3
version 3

Whole song

Interactive

632 views 1 this week
no commentswrite comment
1 2 3 4 5
2 more votes to show rating
add to favorites
launch autoscroll
font size
0
reset
guitar tuner
Autoscroll
slow
fast
+/-
esc
set tempo
stop
Help us to improve Ultimate-Guitar.com Take our survey!
×
Author
Difficulty
Tabbed for a 5-string

Rest Until 0:32
                                   x3
G| |------------------------------| |------------------|
D|o|------------------------------|o|------------------|
A| |------------------------------| |------------------|
E|o|--------3-3--3----------------|o|------------------|
B| |-1-1--1--------4-4--4-3h4-3h4-| |-6-6-6-6-6-6-6--4~|
                                     x3
| |---------------------------------| |-------------------------------|
|o|---------------------------------|o|-------------------------------|
| |---------------------------------| |-------------------------------|
|o|---------3-3-3-3-----------------|o|-------------------------------|
| |-1-1-1-1---------4-4-4-4-3-4-3-4-| |-6-6-6-6-6-6-6---4-4-4-4-4-4-4-|
                                     x3
| |---------------------------------| |---------------------------------|
|o|---------------------------------|o|---------------------------------|
| |---------------------------------| |---------------------------------|
|o|---------3-3-3-3-----------------|o|-------------------4~------6~----|
| |-1-1-1-1---------4-4-4-4-3-4-3-4-| |-6-6-6-6-6-6-6-6-----------------|
                                               x2
| |-------------------------------------------| |
|o|-------------------------------------------|o|
| |-------------------------------------------| |
|o|-------4~--------------------6-6-6-6-6-6---|o|
| |-1~----------6-6-6-6-6-6-6-6-------------4~| |
                                     x3
| |---------------------------------| |-------------------------------|
|o|---------------------------------|o|-------------------------------|
| |---------------------------------| |-------------------------------|
|o|---------3-3-3-3-----------------|o|-------------------------------|
| |-1-1-1-1---------4-4-4-4-3-4-3-4-| |-6-6-6-6-6-6-6---4-4-4-4-4-4-4-|
                                     x3
| |---------------------------------| |---------------------------------|
|o|---------------------------------|o|---------------------------------|
| |---------------------------------| |---------------------------------|
|o|---------3-3-3-3-----------------|o|-------------------4~------6~----|
| |-1-1-1-1---------4-4-4-4-3-4-3-4-| |-6-6-6-6-6-6-6-6-----------------|
                                               x2
| |-------------------------------------------| |
|o|-------------------------------------------|o|
| |-------------------------------------------| |
|o|-------4~--------------------6-6-6-6-6-6---|o|
| |-1~----------6-6-6-6-6-6-6-6-------------4~| |
                                  x3
| |------------------------------| |-----------------|
|o|------------------------------|o|-----------------|
| |------------------------------| |-----------------|
|o|--------3-3--3----------------|o|-----------------|
| |-1-1--1--------4-4--4-3h4-3h4-| |-6-6-6-6-9-9-9-9-|
                                               x2
| |-------------------------------------------| |
|o|-------------------------------------------|o|
| |-------------------------------------------| |
|o|-------4~--------------------6-6-6-6-6-6---|o|
| |-1~----------6-6-6-6-6-6-6-6-------------4~| |

|---------------------------------|
|---------------------------------|
|---------------------------------|
|-------------------4~------6~----|
|-6-6-6-6-6-6-6-6-----------------|
                                               x3
| |-------------------------------------------| |
|o|-------------------------------------------|o|
| |-------------------------------------------| |
|o|-------4~--------------------6-6-6-6-6-6---|o|
| |-1~----------6-6-6-6-6-6-6-6-------------4~| |

|------------------------------|
|------------------------------|
|------------------------------|
|--------3-3--3----------------|
|-1-1--1--------4-4--4-3h4-3h4-|
Suggest correction
Give kudos to tab author, rate the tab!
1 2 3 4 5
comments
print report bad tab
guest
You may want to rate the tab now too:
select rating
Wanna post a correction for this tab? Suggest correction