Oops, an error
Loading. Please wait.

Its All Over tab

version 3
version 3

Whole song

Interactive

3,144 views 6 this week
5 commentsread comments
1 2 3 4 5
x 6
add to favorites
×
Save as Personal and add changes to this tab that will be seen only by you. Learn more ›
×
You can save this tab as Personal to edit and correct it or add notes. All changes will be seen only by you. Learn more »
launch autoscroll
font size
0
reset
how to read this tab
guitar tuner
edit
Autoscroll
slow
fast
+/-
esc
set tempo
stop
Three Days Grace - "Its All Over"
Album: One-X

Tabbed by: Sicfreak91

Not a difficult song to play ... the one really kinda hard part and needs a little practice
is the solo ... which Jaames(username) tabbed ( idk how he figured it out but its inpressive man
=D) ... the rest is basically power chords ... like any other song by TDG

Tuning: Drop C


Intro: (may be bass - its when the weird noise switches for left to right really fast -
follow that beat)
|---------------------------------------------------------------|
|---------------------------------------------------------------|
|---------------------------------------------------------------|
|---------------------------------------------------------------|
|---------------------------------------------------------------|
|-0-0-0-0-0-0-0-0-----------------------------------------------|
pm- - - - - - - -

|---------------------------------------------------------------|
|---------------------------------------------------------------|
|---------------------------------------------------------------|
|-0-0--0-7-7--7-3-3--3-2-3-2-3----------------------------------|
|-0-0--0-7-7--7-3-3--3-2-3-2-3----------------------------------|
|-0-0--0-7-7--7-3-3--3-2-3-2-3----------------------------------|x3

|---------------------------------------------------------------|
|---------------------------------------------------------------|
|---------------------------------------------------------------|
|-x-5-5-5-5-5-5--3~---------------------------------------------|
|-x-5-5-5-5-5-5--3~---------------------------------------------|
|-x-5-5-5-5-5-5--3~---------------------------------------------|x1


Verse 1:
|---------------------------------------------------------------|
|---------------------------------------------------------------|
|---------------------------------------------------------------|
|---------------------------------------------------------------|
|-5555-0000-8888-7878-(3x)------------88888888-(1x)-------------|
|---------------------------55555555x---------------------------|x1
pm---- ---- ---- ----       --------- --------

|---------------------------------------------------------------|
|---------------------------------------------------------------|
|---------------------------------------------------------------|
|---------------------------5-5-5-5-5-5-5-5-8~-xx-10~-----------|
|-5555-0000-8888-7878-(3x)--5-5-5-5-5-5-5-5-8~-xx-10~-----------|
|---------------------------5-5-5-5-5-5-5-5-8~-xx-10~-(1x)------|x1
pm---- ---- ---- ----


Chorus 1:
|---------------------------------------------------------------|
|---------------------------------------------------------------|
|---------------------------------------------------------------|
|-0~-----8~-----5-5-5-5-5-5-5-5-10-10-10-10-10-10--3------------|
|-0~-----8~-----5-5-5-5-5-5-5-5-10-10-10-10-10-10--3~-----------|
|-0~-----8~-----5-5-5-5-5-5-5-5-10-10-10-10-10-10--3~-----------|x2


Verse 2:
|---------------------------------------------------------------|
|---------------------------------------------------------------|
|---------------------------------------------------------------|
|---------------------------------------------------------------|
|-5555-0000-8888-7878-(3x)------------88888888-(1x)-------------|
|---------------------------55555555x---------------------------|x1
pm---- ---- ---- ----       --------- --------

|---------------------------------------------------------------|
|---------------------------------------------------------------|
|---------------------------------------------------------------|
|---------------------------5-5-5-5-5-5-5-5-8~-xx-10~-----------|
|-5555-0000-8888-7878-(3x)--5-5-5-5-5-5-5-5-8~-xx-10~-----------|
|---------------------------5-5-5-5-5-5-5-5-8~-xx-10~-(1x)------|x1


Chorus 2:
|---------------------------------------------------------------|
|---------------------------------------------------------------|
|---------------------------------------------------------------|
|-0~-----8~-----5-5-5-5-5-5-5-5-10-10-10-10-10-10--3------------|
|-0~-----8~-----5-5-5-5-5-5-5-5-10-10-10-10-10-10--3~-----------|
|-0~-----8~-----5-5-5-5-5-5-5-5-10-10-10-10-10-10--3~-----------|x2


Re-intro:
|---------------------------------------------------------------|
|---------------------------------------------------------------|
|---------------------------------------------------------------|
|-0-0--0-7-7--7-3-3--3-2-3-2-3----------------------------------|
|-0-0--0-7-7--7-3-3--3-2-3-2-3----------------------------------|
|-0-0--0-7-7--7-3-3--3-2-3-2-3----------------------------------|x3

|---------------------------------------------------------------|
|---------------------------------------------------------------|
|---------------------------------------------------------------|
|-5-5-5-5-8-8-8-8~----------------------------------------------|
|-5-5-5-5-8-8-8-8~----------------------------------------------|
|-5-5-5-5-8-8-8-8~----------------------------------------------|x1


Rythm behind solo:
|---------------------------------------------------------------|
|---------------------------------------------------------------|
|---------------------------------------------------------------|
|-0~-----8~-----5-5-5-5-5-5-5-5-10-10-10-10-10-10--3------------|
|-0~-----8~-----5-5-5-5-5-5-5-5-10-10-10-10-10-10--3~-----------|
|-0~-----8~-----5-5-5-5-5-5-5-5-10-10-10-10-10-10--3~-----------|x2


Interlude: (clean)
Right in the middle of the quiet part - not heard to miss
|---------------------------------------------------------------|
|--------------------^3~----------------------------------------|
|--------------------^2~----------------------------------------|
|--------------------^0~----------------------------------------|
|--------------------^0~----------------------------------------|
|---------------------------------------------------------------|
Then: (distorted)
|---------------------------------------------------------------|
|---------------------------------------------------------------|
|---------------------------------------------------------------|
|-5-5-5-5-5-5-5-5-8-8-8-8--10~----------------------------------|
|-5-5-5-5-5-5-5-5-8-8-8-8--10~----------------------------------|
|-5-5-5-5-5-5-5-5-8-8-8-8--10~----------------------------------|
pm- - - - - - - - - - - -  --


Chorus 3:
|---------------------------------------------------------------|
|---------------------------------------------------------------|
|---------------------------------------------------------------|
|-0~-----8~-----5-5-5-5-5-5-5-5-10-10-10-10-10-10--3------------|
|-0~-----8~-----5-5-5-5-5-5-5-5-10-10-10-10-10-10--3~-----------|
|-0~-----8~-----5-5-5-5-5-5-5-5-10-10-10-10-10-10--3~-----------|x3


Outro:
|---------------------------------------------------------------|
|---------------------------------------------------------------|
|---------------------------------------------------------------|
|-0-0--0-7-7--7-3-3--3-2-3-2-3----------------------------------|
|-0-0--0-7-7--7-3-3--3-2-3-2-3----------------------------------|
|-0-0--0-7-7--7-3-3--3-2-3-2-3----------------------------------|x1

            
            
Suggest correction
Creating personal tab
Creating personal tab
You can edit any tab online and save it as your Personal.

You can edit, replace or remove any tab part or add personal notes – all changes will be seen only by you.

Personal tabs can be accessed anytime from any device, even offline.
Learn more »
comments
print report bad tab
5 comments total. Showing first comments.
0 reply
jaames 1,351 Jun 13, 2006 10:54 AM

Hmm, I didn't catch this part, I'll check it out...
|---------------------------------------------------------------|
|--------------------^3~----------------------------------------|
|--------------------^2~----------------------------------------|
|--------------------^0~----------------------------------------|
|--------------------^0~----------------------------------------|
|---------------------------------------------------------------|

0 reply
jaames 1,351 Jun 13, 2006 10:58 AM

Ok, I gotcha, that part...I think they play this chord,
|--------------------^0-----------------------------------------|
|--------------------^6~----------------------------------------|
|--------------------^5~----------------------------------------|
|--------------------^0~----------------------------------------|
|--------------------^0~----------------------------------------|
|---------------------------------------------------------------|

0 reply
FENDER785 128 Jun 21, 2006 12:19 PM

im surprised they accepted this tab because its so similar to the others good job though

guest
You may want to rate the tab now too:
select rating
Wanna post a correction for this tab? Suggest correction