Oops, an error
Loading. Please wait.

Just Like You Bass Tab

version 3
12,200 views 9 this week
6 commentsread comments
1 2 3 4 5
x 9
add to favorites
launch autoscroll
font size
0
reset
guitar tuner
Autoscroll
slow
fast
+/-
esc
set tempo
stop
Help us to improve Ultimate-Guitar.com Take our survey!
×
Difficulty
Tuning
novice
D A D G B E
~~~~~~~~~~~~~~~~~~~~~~~~~~~~~~~~~~~~~~~~~~~~~~~~~~~~~~~~~~~~~~~~~~~~~~~~~~
Three Days Grace: Just like you
Tabbed by: Raven
Others were right on but did this one for the beginners so they have the
 full song structure to follow.

1.5 out of 5 for difficulty to play
Keep time to the kick drum in this song listen carefully and you will see
 how the kickdrum and bass tie in together. But have fun Later.
~~~~~~~~~~~~~~~~~~~~~~~~~~~~~~~~~~~~~~~~~~~~~~~~~~~~~~~~~~~~~~~~~~~~~~~~~~

  Intro:
G|------------------------------------------------------|
D|------------------------------------------------------|
A|------------------------------------------------------|
D|-9-7-4-0-9-9--9-7-4-0-9-9--9-7-4-0-9-9--5~5-5-7-5-5-7-|


  Verse:
G|------------------------------------------------------|
D|------------------------------------------------------|
A|------------------------------------------------------|
D|-9-7-4-0-9-9--9-7-4-0-9-9--9-7-4-0-9-9--5~5-5-7-5-5-7-|



G|------------------------------------------------------|
D|------------------------------------------------------|
A|------------------------------------------------------|
D|-9-7-4-0-9-9--9-7-4-0-9-9--9-7-4-0-9-9--5~5-5-7-5-5-7-|


  Pre Chorus
G|---------------------------|
D|---------------------------|
A|---------------------------|
D|-4~5~4~5-5-5-5-5-5-7-5-5-7-|


  Chorus Play 2 x's
G|-------------------------------------------------------------------------|
D|-------------------------------------------------------------------------|
A|-------------------------------------------------------------------------|
D|-9-9-9-9-0-0-0-0-7-7-7-7-10-10-10-10-9-9-9-9-0-0-0-0-7-7-7-7-5-5-7-5-5-7-|


  Verse
G|------------------------------------------------------|
D|------------------------------------------------------|
A|------------------------------------------------------|
D|-9-7-4-0-9-9--9-7-4-0-9-9--9-7-4-0-9-9--5~5-5-7-5-5-7-|



G|------------------------------------------------------|
D|------------------------------------------------------|
A|------------------------------------------------------|
D|-9-7-4-0-9-9--9-7-4-0-9-9--9-7-4-0-9-9--5~5-5-7-5-5-7-|


  Pre Chorus
G|---------------------------|
D|---------------------------|
A|---------------------------|
D|-4~5~4~5-5-5-5-5-5-7-5-5-7-|


  Chorus Play 2 x's
G|-------------------------------------------------------------------------|
D|-------------------------------------------------------------------------|
A|-------------------------------------------------------------------------|
D|-9-9-9-9-0-0-0-0-7-7-7-7-10-10-10-10-9-9-9-9-0-0-0-0-7-7-7-7-5-5-7-5-5-7-|


  Solo Play 3 x's
G|-------------------------------------------|
D|-------------------------------------------|
A|-------------------------------------------|
D|-5-5-5-5-5-5-5-5-0-0-0-0-0-0-0-0-0-9-7-4-0-|

 
 after 3rd time of the riff above play this once
|-----------------------------------------|
|-----------------------------------------|
|-----------------------------------------|
|-2-2-2-2-2-2-2-2-7-7-7-7-7-7-7-7-9-7-4-0-|



G|---------------------------|
D|---------------------------|
A|---------------------------|
D|-4~5~4~5-5-5-5-5-5-7-5-5-7-|


G|------------------------------------------------------|
D|------------------------------------------------------|
A|------------------------------------------------------|
D|-9-7-4-0-9-9--9-7-4-0-9-9--9-7-4-0-9-9--5~5-5-7-5-5-7-|


G|------------------------------------------------------|
D|------------------------------------------------------|
A|------------------------------------------------------|
D|-9-7-4-0-9-9--9-7-4-0-9-9--9-7-4-0-9-9--5~5-5-7-5-5-7-|

G|------------------------------------------------------|
D|------------------------------------------------------|
A|------------------------------------------------------|
D|-9-7-4-0-9-9--9-7-4-0-9-9--9-7-4-0-9-9--5~5-5-7-5-5-7-|
Suggest correction
comments
print report bad tab
6 comments total. Showing first comments.
0 reply
drop d bass1 10 Jul 19, 2009 09:45 PM

if you were talkin about the song being hard, i honestly didnt think it was hard. its one of the easiest songs ive ever learned and im a 13 years old begginer

0 reply
B.C.RichRulz 331 Oct 23, 2009 05:21 PM

wow do you really have to point out your age and make it sounds like your the shit? sorry but it kinda seems like it

0 reply
SK8nBASS 1,851 Aug 02, 2010 07:49 PM

i'm sorry but am i the only one here that thinks this tab is terrible? i'm either all outta tune or this is awful.

guest
You may want to rate the tab now too:
select rating
Wanna post a correction for this tab? Suggest correction