Oops, an error
Loading. Please wait.

Just Like You Bass Tab

version 4
version 4
3,019 views 9 this week
1 commentread comment
1 2 3 4 5
worth learning
x 3
add to favorites
launch autoscroll
font size
0
reset
guitar tuner
Tab Pro tools
  • play this tab
  • loop segment
  • change instrument
  • show fretboard
  • metronome
×
Best way to learn
"Just Like You"
Autoscroll
slow
fast
+/-
esc
set tempo
stop
Contributor
Difficulty
intermediate
I looked at all the Tabs for this song and they are Drop D Tuning or for 5 strings
So here’s one with standard tuning on a 4 string E A D G

Intro and Verse (3 Times)

G|----------------------------------------------------------|
D|----------------------------------------------------------|
A|1---11--1---11--1---11------------------------------------|
E|-414-----414-----414----2---2—2-4--2-2-4------------------|

Pre Chorus

G|----------------------------------------------------------|
D|----------------------------------------------------------|
A|----------------------------------------------------------|
E|-1---------2---------1---------2-2-2-2----2-2-4--2-2-4----|

Chorus (2 Times)

G|----------------------------------------------------------|
D|----------------------------------------------------------|
A|-----4444----------------4444-----------------------------|
E|6666------4444-7777-6666------4444---2-2-4-2-2-4----------|

Verse 2

G|----------------------------------------------------------|
D|----------------------------------------------------------|
A|-Rest---1---11--1---11------------------------------------|
E|---------414-----414----2—--2-2-4--2-2-4------------------|

G|----------------------------------------------------------|
D|----------------------------------------------------------|
A|1---11--1---11--1---11------------------------------------|
E|-414-----414-----414----2---2—2-4--2-2-4------------------|

Pre Chorus

G|----------------------------------------------------------|
D|----------------------------------------------------------|
A|----------------------------------------------------------|
E|-1---------2---------1---------2-2-2-2----2-2-4--2-2-4----|

Chorus (2 Times)

G|----------------------------------------------------------|
D|----------------------------------------------------------|
A|-----4444----------------4444-----------------------------|
E|6666------4444-7777-6666------4444---2-2-4-2-2-4----------|

Bridge
       3 Times                 Then
G|----------------------|--------------------------------------|
D|----------------------|--------------------------------------|
A|---------4444--1------|----------4444--1---------------------|
E|22222222--------414---|-66666666--------414------------------|

Pre Chorus

G|----------------------------------------------------------|
D|----------------------------------------------------------|
A|----------------------------------------------------------|
E|-1---------2---------1---------2-2-2-2----2-2-4--2-2-4----|

Chorus (2 Times)

G|----------------------------------------------------------|
D|----------------------------------------------------------|
A|-----4444----------------4444-----------------------------|
E|6666------4444-7777-6666------4444---2-2-4-2-2-4----------|

Verse (2 Times)

G|----------------------------------------------------------|
D|----------------------------------------------------------|
A|1---11--1---11--1---11------------------------------------|
E|-414-----414-----414----2---2—2-4--2-2-4------------------|
comments
We did not receive enough feedback on this tab! Please rate:
print report bad tab
1 2 3 4 5
1 comment total.
+1 reply
roguebassist wrote on December 2 2006, 12:04 pm

God bless you

I want to post or [tab]
guest
You may want to rate the tab now too:
select rating
Please do not post tabs as comments. Select "correction" instead!