Oops, an error
Loading. Please wait.

Just Like You Bass Tab

version 5
version 5
3,199 views 6 this week
no commentswrite comment
1 2 3 4 5
worth learning
x 1
add to favorites
launch autoscroll
font size
0
reset
guitar tuner
Tab Pro tools
  • play this tab
  • loop segment
  • change instrument
  • show fretboard
  • metronome
Autoscroll
slow
fast
+/-
esc
set tempo
stop
Contributor
Difficulty
novice
Just Like You-Three Days Grace: 
                           
                         BY: CHRIS FRAZIER
Intro:
 g:-------------------------------------------------------------;
 d:-------------------------------------------------------------;
 a:-------------------------------------------------------------;
db:9-7-4-0-9-9---9-7-4-0-9-9---9-7-4-0-9-9----5---5-5-7--5-5-7--;

Verse  (x2)
 g:------------------------------------------------------------;
 d:------------------------------------------------------------;
 a:------------------------------------------------------------;
db:9-7-4-0-9-9---9-7-4-0-9-9---9-7-4-0-9-9----5---5-5-7--5-5-7-;

pre-chorus
 g:---------------------------------------------------------;
 d:---------------------------------------------------------;
 a:---------------------------------------------------------;
db:-4---------5---------4---------5-5-5-5----5-5-7--5-5-7---;

Chorus  (x2)
 g:-------------------------------------------------------------------------;
 d:-------------------------------------------------------------------------;
 a:-------------------------------------------------------------------------;
db:9999----0000----7777----10101010----9999----0000----7777----5-5-7--5-5-7-;
                               ^
Pause For Guitar             Ten's

 g:---------------------------------------------;
 d:---------------------------------------------;
 a:---------------------------------------------;
db:9-7-4-0-9-9---9-7-4-0-99----5---5-5-7--5-5-7-;

Verse
 g:------------------------------------------------------------;
 d:------------------------------------------------------------;
 a:------------------------------------------------------------;
db:9-7-4-0-9-9---9-7-4-0-9-9---9-7-4-0-9-9----5---5-5-7--5-5-7-;


PRE-CHORUS

CHORUS  (x2)


Bridge Pt.1  (x3)
 g:-----------------------------------------;
 d:-----------------------------------------;
 a:-----------------------------------------;
db:5-5-5-5-5-5-5-5--0-0-0-0-0-0-0---9-7-4-0-;

Bridge Pt.2
 g:-----------------------------------------;
 d:-----------------------------------------;
 a:-----------------------------------------;
db:2-2-2-2-2-2-2-2--7-7-7-7-7-7-7---9-7-4-0-;

PRE-CHORUS

CHORUS  (x2)

VERSE
comments
We did not receive enough feedback on this tab! Please rate:
print report bad tab
1 2 3 4 5
I want to post or [tab]
guest
You may want to rate the tab now too:
select rating
Please do not post tabs as comments. Select "correction" instead!