Oops, an error
Loading. Please wait.

Just Like You Bass Tab

version 6
1,983 views 3 this week
1 commentread comment
1 2 3 4 5
excellent!
x 5
add to favorites
launch autoscroll
font size
0
reset
guitar tuner
Tab Pro tools
  • play this tab
  • loop segment
  • change instrument
  • show fretboard
  • metronome
×
Best way to learn
"Just Like You"
Autoscroll
slow
fast
+/-
esc
set tempo
stop
Contributor
Difficulty
novice
Three Days Grace
Just Like You
Tabbed By mhouse2112

Tune Down 1.5 Steps: Db, Gb, Cb, Fb



Intro:
Fb|-------------|-------------|-------------|---------------|
Cb|-------------|-------------|-------------|---------------|
Gb|-4-2-----4-4-|-4-2-----4-4-|-4-2-----4-4-|-0-----2-----2-|
Db|-----4-0-----|-----4-0-----|-----4-0-----|----44----44---|


Verse 1
Fb|-------------|-------------|-------------|---------------|
Cb|-------------|-------------|-------------|---------------|
Gb|-4-2-----4-4-|-4-2-----4-4-|-4-2-----4-4-|-0-----2-----2-|
Db|-----4-0-----|-----4-0-----|-----4-0-----|----44----44---| x2


Pre-Chorus
Fb|-------------------------------------------------------------------|
Cb|-------------------------------------------------------------------|
Gb|-----------------0-0-0-0-0-0-0-2-----------------0-0-0-0----2----2-|
Db|-4-4-4-4-4-4-4-4-----------------4-4-4-4-4-4-4-4---------44---44---|


Chorus
Fb|----------------------------------------------|
Cb|----------------0000--------------------------|
Gb|-4444------2222------4444------0000----2----2-|
Db|------0000----------------0000------44---44---| x2


Verse 2
Fb|-------------|-------------|-------------|---------------|
Cb|----Rest-----|-------------|-------------|---------------|
Gb|(Guitar Only)|-4-2-----4-4-|-4-2-----4-4-|-0-----2-----2-|
Db|-------------|-----4-0-----|-----4-0-----|----44----44---|

Fb|-------------|-------------|-------------|---------------|
Cb|-------------|-------------|-------------|---------------|
Gb|-4-2-----4-4-|-4-2-----4-4-|-4-2-----4-4-|-0-----2-----2-|
Db|-----4-0-----|-----4-0-----|-----4-0-----|----44----44---|


Pre-Chorus

Chorus x2


Bridge
Fb|------------------------------------|
Cb|------------------------------------|
Gb|-0-002-------42----------2-22--42---|
Db|-------0-00----402-22222---------40-| x2

Fb|-------------------------------------------------------------------|
Cb|-------------------------------------------------------------------|
Gb|-----------------0-0-0-0-0-0-0-2-----------------0-0-0-0----2----2-|
Db|-4-4-4-4-4-4-4-4-----------------4-4-4-4-4-4-4-4---------44---44---|


Chorus x2

Repeat First Half Of Verse 1



I play it better than I can tab it. :)
Just have fun with it. Crank it up and take out some aggression on those strings!
comments
print report bad tab
1 comment total.
0 reply
Ges613 wrote on March 3 2016, 10:54 pm

Wow this surprisingly doesnt have any comments. Oh well heres a first. Awesome tab bro!!! Spot on!!

I want to post or [tab]
guest
You may want to rate the tab now too:
select rating
Please do not post tabs as comments. Select "correction" instead!