Oops, an error
Loading. Please wait.

Last To Know Bass Tab

version 1
version 1

Whole song

Interactive

6,655 views 6 this week
no commentswrite comment
1 2 3 4 5
excellent!
x 4
add to favorites
launch autoscroll
font size
0
reset
guitar tuner
Tab Pro tools
  • play this tab
  • loop segment
  • change instrument
  • show fretboard
  • metronome
×
Best way to learn
"Last To Know"
Autoscroll
slow
fast
+/-
esc
set tempo
stop
Contributor
-------------------------------------------------------------------------------
			     LAST TO KNOW - Three Days Grace
-------------------------------------------------------------------------------

Tabbed By : mariewong

Tuning: Standard





1:59
G|------------------------------|
D|-3(x16)--------3(x12)-2-3-2~--|
A|--------0(x16)----------------|
E|------------------------------|



Chorus:

I'll be the first to say
That now I'm okay
And for the first time
I've opened up my eyes

G|---------------------------------------------------------|
D|-------2(x10)--0(x6)-2(x10)--2(x6)-2(x10)--0(x6)-2(x10)--|
A|-2(x6)---------------------------------------------------|
E|---------------------------------------------------------|


This was my worst love
You'll be the first to go
And when she leaves you for dead
You'll be the last to know


G|-------4(x10)----------------------4(x10)----------------|
D|-2(x6)---------0(x6)-2(x10)--2(x6)---------0(x6)-2(x10)--|
A|---------------------------------------------------------|
E|---------------------------------------------------------|


I'll be the first to say
That now I'm okay
And for the first time
I've opened up my eyes


G|---------------------------------------------------------|
D|-------2(x10)--0(x6)-2(x10)--2(x6)-2(x10)--0(x6)-2(x10)--|
A|-2(x6)---------------------------------------------------|
E|---------------------------------------------------------|


This was my worst love
You'll be the first to go

G|-------4(x10)----------------|
D|-2(x6)---------0(x6)-2(x10)--|
A|-----------------------------|
E|-----------------------------|



And when she leaves you for dead
You'll be the last to know






| /  slide up
| \  slide down
| h  hammer-on
| p  pull-off
| ~  vibrato
| +  harmonic
| x  Mute note
===============================================================================
comments
print report bad tab
I want to post or [tab]
guest
You may want to rate the tab now too:
select rating
Please do not post tabs as comments. Select "correction" instead!