Oops, an error
Loading. Please wait.

Let It Die Tab

version 1
version 1

Whole song

Interactive

103,253 views 96 this week
17 commentsread comments
1 2 3 4 5
excellent!
x 39
add to favorites
launch autoscroll
font size
0
reset
how to read this tab
guitar tuner
Autoscroll
slow
fast
+/-
esc
set tempo
stop
Help us to improve Ultimate-Guitar.com Take our survey!
×
Author
Tuning
D A D G B E
Artist : Three Days Grace
Song   : Let It Die
Album  : One-X
Tuning : Drop D

Tabbed by jaames

Intro (x1)
E|------------------------------------------------|
B|------------------------------------------------|
G|------------------------------------------------|
D|-7-7--7-7--10-10--10-10---5-5--5-5---5-5--5-5---|
A|-5-5--5-5---7--7---7--7---3-3--3-3---3-3--3-3---|
D|-5-5--5-5---7--7---7--7---3-3--3-3---3-3--3-3---|

Verse (x2)                                               Gtr.2 plays this
E|-----------------------------------------------------|------------------|(x2)
B|-----------------------------------5-----------5-----|------------------|
G|----------7------------9-----------------------------|-/9--7--5--/12--7-|
D|-7--7--7-----10-10-10-----5--5--5-----5--5--5--------|------------------|
A|-5--5--5------7--7--7-----3--3--3-----3--3--3--------|------------------|
D|-5--5--5------7--7--7-----3--3--3-----3--3--3--------|------------------|

Pre-chorus PM (x2)
E|--------------------------------------|
B|--------------------------------------|
G|-5-5-5-5-5-5-5-5---5-5-5-5---5-5-5-5--|
D|-2-2-2-2-2-2-2-2---3-3-3-3---5-5-5-5--|
A|--------------------------------------|
D|--------------------------------------|

Chorus (x2)
E|----------------------------------------------------------------------|
B|----------------------------------------------------------------------|
G|----------------------------------------------------------------------|
D|-7-7---10-10---0---3-3---10-10---5---7-7---10-10---0---3-3-3-3---5-5--|
A|-7-7---10-10---0---3-3---10-10---5---7-7---10-10---0---3-3-3-3---5-5--|
D|-7-7---10-10---0---3-3---10-10---5---7-7---10-10---0---3-3-3-3---5-5--|

Bridge (x2)
E|-------------------------------------|-------------------------------------|(x2)
B|-------------------------------------|-------------------------------------|
G|-------------------------------------|-------------------------------------|
D|-0-0-0-0--2-2-2-2--3-3-3-3--5-5-5-5--|-7-7-7-7--0-0-0-0--3-3-3-3--5-5-5-5--|
A|-0-0-0-0--2-2-2-2--3-3-3-3--5-5-5-5--|-7-7-7-7--0-0-0-0--3-3-3-3--5-5-5-5--|
D|-0-0-0-0--2-2-2-2--3-3-3-3--5-5-5-5--|-7-7-7-7--0-0-0-0--3-3-3-3--5-5-5-5--|

Then this, while the chorus is playing (x2)
E|----------------------------------------|----------------------------------------|
B|----------------------------------------|----------------------------------------|
G|-9--9---12-12---11---5--5---12--12---7--|-9--9---12-12--11---5--5--5---x-x---7-7-|
D|-x--x----x--x----x---x--x----x---x---x--|-x--x----x--x---x---x--x--x---x-x---x-x-|
A|-7--7---10-10----9---3--3---10--10---5--|-7--7---10-10---9---3--3--3---x-x---5-5-|
D|----------------------------------------|----------------------------------------|

Ending
E|---------------------|
B|---------------------|
G|-/9--7--5--/12--9----|
D|---------------------|
A|---------------------|
D|---------------------|
And thats its, probably not perfect, but it sounds good I think.
Suggest correction
What's this?
You can suggest a correction to this tab. Community and Mods will review your correction and vote to approve or reject it.
comments
print report bad tab
17 comments total. Showing first comments.
-1 reply
gigson111 436 wrote on June 27 2006, 06:22 pm

the chorus doesnt sound rite..it should go like this:
E|-----------------------------------------------------
B|-----------------------------------------------------
G|-----------------------------------------------------
D|771010xxx3~551010xxx5~771010xxx3~555xx10x1010--------A|771010xxx3~551010xxx5~771010xxx3~555xx10x1010--------D|771010xxx3~551010xxx5~771010xxx3~555xx10x1010--------

0 reply
gigson111 436 wrote on June 27 2006, 06:24 pm

that really got screwed up...

E|-------------------------------------------------------------------
B|-------------------------------------------------------------------
G|-------------------------------------------------------------------
D|771010xxx3~551010xxx5~771010xxx3~555xx10x1010----------------------A|771010xxx3~551010xxx5~771010xxx3~555xx10x1010----------------------
D|771010xxx3~551010xxx5~771010xxx3~555xx10x1010----------------------

0 reply
gigson111 436 wrote on June 28 2006, 09:34 am

E|-------------------------------------------------------------------
B|-------------------------------------------------------------------
G|-------------------------------------------------------------------
D|771010xxx3~551010xxx5~771010xxx3~555xx7x77-------------------------A|771010xxx3~551010xxx5~771010xxx3~555xx7x77-------------------------
D|771010xxx3~551010xxx5~771010xxx3~555xx7x77-------------------------
or it can go like this...this sounds better though

guest
You may want to rate the tab now too:
select rating
Please do not post tabs as comments. Select "correction" instead!