Oops, an error
Loading. Please wait.

Let It Die Bass Tab

version 2
version 2

Whole song

Interactive

5,749 views 6 this week
1 commentread comment
1 2 3 4 5
excellent!
x 4
add to favorites
launch autoscroll
font size
0
reset
guitar tuner
Autoscroll
slow
fast
+/-
esc
set tempo
stop
Help us to improve Ultimate-Guitar.com Take our survey!
×
Author
G-------------------------------------------------------------------------|
D-------------------------------------------------------------------------|
A-------------------------------------------------------------------------|
D-5-5-5-5--7-7-7-7--3-3-3-3--3-3-3-3--5-5-5-5--7-7-7-7--3-3-3-3--3-3-3-3--|

G----------------|
D----------------|
A----------------|
D5-5-5-5--7-7-7-7|

G----------------------------|
D-2-2-2-2-2-2-2-2--3-3-3-3—5-|
A----------------------------|
D----------------------------|

G------------------------------------------------------|
D------------------------------------------------------|
A-0-0--3-3------------3-3-----0-0--3-3-----------3-3---|
D-----------0-3-3--3-------5------------0-3-3--3-----5-|

G---------------------------|
D---------------------------|
A-0-0--3-3------------3-3---|
D-----------0-3-3--3------5-|

G-----------------------|
D-----------------------|
A-0-0--3-3--------------|
D----------0-3-3--3-3-5-|

G------------------------------------------------------------------------|
D------------------------------------------------------------------------|
A------------------------------------------------------------------------|
D-5-5-5-5--7-7-7-7--3-3-3-3--3-3-3-3--5-5-5-5--7-7-7-7--3-3-3-3--3-3-3-3-|

G-----------------|
D-----------------|
A-----------------|
D-5-5-5-5--7-7-7-7|

G----------------------------|
D-2-2-2-2-2-2-2-2--3-3-3-3—5-|
A----------------------------|
D----------------------------|

G------------------------------------------------------|
D------------------------------------------------------|
A-0-0--3-3------------3-3-----0-0--3-3-----------3-3---|
D-----------0-3-3--3-------5------------0-3-3--3-----5-|

G---------------------------|
D---------------------------|
A-0-0--3-3------------3-3---|
D-----------0-3-3--3------5-|

G-----------------------|
D-----------------------|
A-0-0--3-3--------------|
D----------0-3-3--3-3-5-|

G------------------------------------------------------------------------|
D-0-0-0-0--2-2-2-2--3-3-3-3--5-5-5-5--0-0-0-0--2-2-2-2--3-3-3-3--5-5-5-5-|
A------------------------------------------------------------------------|
D------------------------------------------------------------------------|

G-2-2-2-2-----------------------------2-2-2-2--4-4-4-4--5-5-5-5-|
D----------2-2-2-2--3-3-3-3--5-5-5-5----------------------------|
A---------------------------------------------------------------|
D---------------------------------------------------------------|

G--7-7-7-7-7-7-----|
D------------------|
A--------------0-0-|
D------------------|

G------------------------------------------------------------|
D------------------------------------------------------------|
A--------3-3----0-0-3-3-2------------0-0--3-3----------3-3---|
D-3-3--3-----5------------3-3-x-x-5-----------0-3-3--3-----5-|

G---------------------|
D---------------------|
A-0-0-3-3-2-----------|
D-----------3-3-x-x-5-|

G-----------------------------------------------------------------------|
D-----------------------------------------------------------------------|
A-0-0--3-3----------3-3----0-0-3-3-2-----------0-0--3-3----------3-3----|
D----------0-3-3--3-----5------------3-3-x-x-5-----------0-3-3--3-----5-|

G----------------------|
D----------------------|
A--0-0-3-3-2-----------|
D------------3-3-x-x-5-|
Suggest correction
What's this?
You can suggest a correction to this tab. Community and Mods will review your correction and vote to approve or reject it.
comments
print report bad tab
1 comment total.
+2 reply
fireproofcat 46 wrote on September 4 2007, 10:24 pm

seperating this into parts like intro, verse, chorus would help alot...

guest
You may want to rate the tab now too:
select rating
Please do not post tabs as comments. Select "correction" instead!