Oops, an error
Loading. Please wait.
We have an official Let It Die tab made by UG professional guitarists. Check out the tab »
×
14,735 views 3 this week
21 commentsread comments
1 2 3 4 5
x 14
add to favorites
×
Save as Personal and add changes to this tab that will be seen only by you. Learn more ›
×
You can save this tab as Personal to edit and correct it or add notes. All changes will be seen only by you. Learn more »
launch autoscroll
font size
0
reset
how to read this tab
guitar tuner
edit
Autoscroll
slow
fast
+/-
esc
set tempo
stop
This song is in Drop D, this is my first tab i hope you like it!

Song: Let It Die
Artist: Three Days Grace
Album: One-X
Tuning: Drop D (low to high) D A D G B E
Tabber: gigson111
P.M.  .= Palm Mute
///    = Slide
h      = Hammer On
p      = Pull Off
^      = Bend
x      = Dead Note
~      = Let Ring
                       Verse(Really isn't an intro)Clean
E|--------------------------------------------------------------------------|
B|--------------------------------------------------------------------------|
G|--------------------------------------------------------------------------|
D|-7-7----7--10-10-----10---5-5----5---5-5----5-----------------------------|
A|-5-5----5---7--7------7---3-3----3---3-3----3-----------------------------|
D|-5----5-----7------7--7---3----3-----3----3-------------------------------|
                            x2
           Clean             Pre Chorus           Distortion
E|-------------------------------------------|------------------------------|
B|-------------------------------------------|------------------------------|
G|---------------------55555555---5555--5555-|-55555555--5555---5-----------|
D|7-7---7---10-10-10---22222222---3333--5555-|-22222222--3333---5-----------|
A|5-5---5----7-7---7-------------------------|------------------------------|
D|5---5------7---7---------------------------|------------------------------|
P.M.                   ........   ....  ....   ........  ..

                                Chorus Distortion
E|--------------------------------------------------------------------------|
B|--------------------------------------------------------------------------|
G|--------------------------------------------------------------------------|
D|-7-7---10-10xxx0---3-3---10-10xxx5---7-7---10-10xxx0---3-3-3-3xxx5x5------|
A|-7-7---10-10xxx0---3-3---10-10xxx5---7-7---10-10xxx0---3-3-3-3xxx5x5------|
D|-7-7---10-10xxx0---3-3---10-10xxx5---7-7---10-10xxx0---3-3-3-3xxx5x5------|
                             x2

                      Verse    Clean
E|--------------------------------------------------------------------------|
B|--------------------------------------------------------------------------|
G|--------------------------------------------------------------------------|
D|-7-7----7--10-10-----10---5-5----5---5-5----5-----------------------------|
A|-5-5----5---7--7------7---3-3----3---3-3----3-----------------------------|
D|-5----5-----7------7--7---3----3-----3----3-------------------------------|
                            x2
   Clean                         Pre Chorus              Distortion
E|-------------------------------------------|------------------------------|
B|-------------------------------------------|------------------------------|
G|---------------------55555555---5555--5555-|-55555555--5555---5-----------|
D|7-7---7---10-10-10---22222222---3333--5555-|-22222222--3333---5-----------|
A|5-5---5----7-7---7-------------------------|------------------------------|
D|5---5------7---7---------------------------|------------------------------|
P.M.                   ........   ....  ....   ........  ..

                             Chorus  Distortion
E|--------------------------------------------------------------------------|
B|--------------------------------------------------------------------------|
G|--------------------------------------------------------------------------|
D|-7-7---10-10xxx0---3-3---10-10xxx5---7-7---10-10xxx0---3-3-3-3xxx5x5------|
A|-7-7---10-10xxx0---3-3---10-10xxx5---7-7---10-10xxx0---3-3-3-3xxx5x5------|
D|-7-7---10-10xxx0---3-3---10-10xxx5---7-7---10-10xxx0---3-3-3-3xxx5x5------|
                             x2

                                  Bridge

E|-------------------------------------|------------------------------------|
B|-------------------------------------|------------------------------------|
G|-2-2-2-2--4-4-4-4--5-5-5-5--7-7-7-7--|-9-9-9-9--4-4-4-4--5-5-5-5--7-7-7-7-|
D|-0-0-0-0--2-2-2-2--3-3-3-3--5-5-5-5--|-7-7-7-7--2-2-2-2--3-3-3-3--5-5-5-5-|
A|-0-0-0-0--2-2-2-2--3-3-3-3--5-5-5-5--|-7-7-7-7--2-2-2-2--3-3-3-3--5-5-5-5-|
D|-0-0-0-0--2-2-2-2--3-3-3-3--5-5-5-5--|-7-7-7-7--2-2-2-2--3-3-3-3--5-5-5-5-|
             x2                                      x1

E|--------------------------------------------------------------------------|
B|--------------------------------------------------------------------------|
G|9-9-9-9--10--10-10-10-13-13-13-13--13-13-13-13-13-13--13-12-12------------|
D|7-7-7-7--8----8--8--8-9--9---9-11--11-11-11-11-11-11--11-10-10------------|
A|7-7-7-7--8----8--8--8-9--9---9-11--11-11-11-11-11-11--11-10-10------------|
D|7-7-7-7--8----8--8--8----9---9-11--11-11-11-11-11-11--11-10-10------------|

                                  Chorus
                           Chorus  Distortion
E|--------------------------------------------------------------------------|
B|--------------------------------------------------------------------------|
G|--------------------------------------------------------------------------|
D|-------------------3-3---10-10xxx5---7-7---10-10xxx0---3-3-3-3xxx5x5------|
A|-------------------3-3---10-10xxx5---7-7---10-10xxx0---3-3-3-3xxx5x5------|
D|-------------------3-3---10-10xxx5---7-7---10-10xxx0---3-3-3-3xxx5x5------|
                             x1

                           Chorus  Distortion
E|--------------------------------------------------------------------------|
B|--------------------------------------------------------------------------|
G|--------------------------------------------------------------------------|
D|-7-7---10-10xxx0---3-3---10-10xxx5---7-7---10-10xxx0---3-3-3-3xxx5x5------|
A|-7-7---10-10xxx0---3-3---10-10xxx5---7-7---10-10xxx0---3-3-3-3xxx5x5------|
D|-7-7---10-10xxx0---3-3---10-10xxx5---7-7---10-10xxx0---3-3-3-3xxx5x5------|
                             x1
                           Chorus  Distortion
E|--------------------------------------------------------------------------|
B|--------------------------------------------------------------------------|
G|-9-9---12-12///5---5-5---12-12///7---9-9---12-12///5---5-5-5-5---7-7------|
D|-7-7---10-10xxx0---3-3---10-10xxx5---7-7---10-10xxx0---3-3-3-3xxx5x5------|
A|-7-7---10-10xxx0---3-3---10-10xxx5---7-7---10-10xxx0---3-3-3-3xxx5x5------|
D|-7-7---10-10xxx0---3-3---10-10xxx5---7-7---10-10xxx0---3-3-3-3xxx5x5------|
                             x2
                            Ending
E|--------------------------------------------------------------------------|
B|---------9^-7-------------------------------------------------------------|
G|--12-9-7------------------------------------------------------------------|
D|-----------------0~~------------------------------------------------------|
A|-----------------0~~-----------h5~--------h5~-----------------------------|
D|-----------------0~~--------h3~---p0~-h3~-----p0~-------------------------|

Hope You like this tab!
Suggest correction
Creating personal tab
Creating personal tab
You can edit any tab online and save it as your Personal.

You can edit, replace or remove any tab part or add personal notes – all changes will be seen only by you.

Personal tabs can be accessed anytime from any device, even offline.
Learn more »
comments
print report bad tab
21 comments total. Showing first comments.
0 reply
icancount210 10 Jul 01, 2006 06:05 AM

nice tab...sounds rite..reallly good 5 stars

0 reply
jaames 1,351 Jul 01, 2006 09:29 AM

why did you say my intro was wrong, lol, yours is the exact same chords, just a little strumming difference. And I don't know what you're hearing in the chorus, but this is how they play it , no doubt about it. They go down to 0 on the 3rd power chord.
E|-----------------------------------------------------------|
B|-----------------------------------------------------------|
G|-----------------------------------------------------------|
D|-7-7--10-10--0--3-3--10-10--5--7-7--10-10--0--3-3-3-3--5-5-|
A|-7-7--10-10--0--3-3--10-10--5--7-7--10-10--0--3-3-3-3--5-5-|
D|-7-7--10-10--0--3-3--10-10--5--7-7--10-10--0--3-3-3-3--5-5-|

0 reply
jaames 1,351 Jul 01, 2006 09:37 AM

nevermind dude, i didn't see your 0's hiding behind your x's, good job, 5.

guest
You may want to rate the tab now too:
select rating
Wanna post a correction for this tab? Suggest correction