Oops, an error
Loading. Please wait.

Life Starts Now Bass Tab

version 1
version 1

Whole song

Interactive

4,781 views 6 this week
1 commentread comment
1 2 3 4 5
x 7
add to favorites
launch autoscroll
font size
0
reset
guitar tuner
Autoscroll
slow
fast
+/-
esc
set tempo
stop
Help us to improve Ultimate-Guitar.com Take our survey!
×
Author
Tuning
D A D G B E
-------------------------------------------------------------------------------
			     LIFE STARTS NOW - Three Days Grace
-------------------------------------------------------------------------------

Tabbed By : mariewong

Tuning: Drop D




Verse:
You say you feel so down
Every time I turn around
You say you should've been gone by now
And you think everything's wrong
You ask me how to carry on
We'll make it through another day, just hold on

G|--------------------------------------------|
D|--------------------------------------------|
A|-0-0-00-0-0--3-3-33-3-3-5-5-55-5-5-8-88-7~--|
D|--------------------------------------------|

G|---------------------------------------------|
D|---------------------------------------------|
A|-0-0-00-0-0--3-3-33-3-3-5-5-55-5-5-8-108-7~--|
D|---------------------------------------------|

G|--------------------------------------------|
D|--------------------------------------------|
A|-0-0-00-0-0--3-3-33-3-3-5-5-55-5-5-8-88-7~--|
D|--------------------------------------------|

G|--------------------------------------------|
D|--------------------------------------------|
A|-0-0-00-0-0--3-3-33-3-3-5-5-55-5-5-8-88-7~--|
D|--------------------------------------------|



Chorus:
Cause life starts now
You've done all the things that you could kill you somehow
And you're so far down
But you will survive it somehow
Because life starts now

G|-------------------------------------------------------------------|
D|-------------------------------------------------------------------|
A|-0-00-2-22-3-33-3-3-3--0-00-3-33-5-55-8-8-88-0-00------------------|
D|--------------------------------------------------5-55-3-33-3-3-3--|

G|-------------------|
D|-------------------|
A|-0-00-1-11-3~--0~--|
D|-------------------|



Verse:
I hate to see you fall down
I'll pick you up off the ground
I've watched the weight of your world come down
And now it's your chance to move on 
Change the way you've lived for so long
You find the strength you've had inside all along

G|--------------------------------------------|
D|--------------------------------------------|
A|-0-0-00-0-0--3-3-33-3-3-5-5-55-5-5-8-88-7~--|
D|--------------------------------------------|

G|---------------------------------------------|
D|---------------------------------------------|
A|-0-0-00-0-0--3-3-33-3-3-5-5-55-5-5-8-108-7~--|
D|---------------------------------------------|

G|--------------------------------------------|
D|--------------------------------------------|
A|-0-0-00-0-0--3-3-33-3-3-5-5-55-5-5-8-88-7~--|
D|--------------------------------------------|

G|--------------------------------------------|
D|--------------------------------------------|
A|-0-0-00-0-0--3-3-33-3-3-5-5-55-5-5-8-88-7~--|
D|--------------------------------------------|



Chorus:
Cause life starts now
You've done all the things that you could kill you somehow
And you're so far down
But you will survive it somehow
Because life starts now

G|-------------------------------------------------------------------|
D|-------------------------------------------------------------------|
A|-0-00-2-22-3-33-3-3-3--0-00-3-33-5-55-8-8-88-0-00------------------|
D|--------------------------------------------------5-55-3-33-3-3-3--|

G|-----------------------|
D|-----------------------|
A|-0-00-1-11-3-33-3-3-3--|
D|-----------------------|



Bridge:
All this pain
Take this life and make it yours
All this hate
Take your heart and let it love again
You will survive it somehow

G|------------------------------------------|
D|-------------------------------5-55-5-55--|
A|-5-55-5-55-8-88-8-88-3-33-3-33------------|
D|------------------------------------------|

G|------------------------------------------|
D|-------------------------------5-55-5-55--|
A|-5-55-5-55-8-88-8-88-3-33-3-33------------|
D|------------------------------------------|

G|--------------------------------|
D|--------------------------------|
A|-5-55-5-55-8-88-8-88-3-33-3-33--|
D|--------------------------------|



Break: 
Life starts now



Chorus:
You've done all the things that you could kill you somehow
And you're so far down
Life starts now
You've done all the things that you could kill you somehow
And you're so far down
Life starts now

G|-------------------------------------------------------------------------|
D|-------------------------------------------------------------------------|
A|------------2-22-2-2-2-5-55-5-5-5-0-00-0-0-0-------------2~--------------|
D|-5-55-5-5-5----------------------------------5-55-5-5-5----4~-5-55-5-5-5-|

G|---------------------------------------------------------|
D|---------------------------------------------------------|
A|-2-22-2-2-2-5-55-5-5-5-0-00-0-0-0--------------2~-0~-----|
D|-----------------------------------5-55-5-5-5--------5~--|







| /  slide up
| \  slide down
| h  hammer-on
| p  pull-off
| ~  vibrato
| +  harmonic
| x  Mute note
===============================================================================
Suggest correction
comments
print report bad tab
1 comment total.
0 reply
bartfan14 82 Dec 03, 2009 02:15 PM

You can take the 108s out and just leave them the same as the other 3 lines then on the bridge add the higher D string 5th frets. that way the timing doesn't get off.

guest
You may want to rate the tab now too:
select rating
Wanna post a correction for this tab? Suggest correction