Oops, an error
Loading. Please wait.

Lost In You Bass Tab

version 1
version 1

Whole song

Interactive

10,928 views 3 this week
no commentswrite comment
1 2 3 4 5
accurate
x 8
add to favorites
launch autoscroll
font size
0
reset
guitar tuner
Autoscroll
slow
fast
+/-
esc
set tempo
stop
Help us to improve Ultimate-Guitar.com Take our survey!
×
Author
Tuning
D A D G B E
-------------------------------------------------------------------------------
			     LOST IN YOU - Three Days Grace
-------------------------------------------------------------------------------

Tabbed By : mariewong

Tuning: Drop D





Intro:

G|----------------------|
D|---0------------------|
A|-0---0-4-4-4-44-4444--|
D|----------------------|



Verse:

G|-------------------------------------------|
D|---0--------------------0------------------|
A|-0---0-4-4-4-44-4444--0--------------------|  [x2]
D|--------------------------4-4-4-4-44-4444--|



Prechorus:

G|--------------------------------------------------------------------|
D|--------------------------------------------------------------------|
A|--------------------------------------------------------------------|
D|-2-2-2-2-2-2-2-4-0-0-0-0--2-2-2-2-2-2-2-4-0-0-0-0---2~-2-2-2-2-2-2--|



Chorus:

G|--------------2-2-------------------------------------|
D|-----4~-4-4-4-----0~-0-0-0-----4~-4-4-4-0-0-2~-2-2-2--|
A|-5-5-----------------------5-5------------------------|
D|------------------------------------------------------|

G|--------------2-2----------------2~--------|
D|-----4~-4-4-4-----0~-0-0-0----0~----4~-2~--|
A|-5-5---------------------------------------|
D|-------------------------------------------|



Pre-verse:

G|----------------------|
D|---0------------------|
A|-0---0-4-4-4-44-4444--|
D|----------------------|



Verse:

G|-------------------------------------------|
D|---0--------------------0------------------|
A|-0---0-4-4-4-44-4444--0--------------------|  [x2]
D|--------------------------4-4-4-4-44-4444--|



Prechorus:

G|--------------------------------------------------------------------|
D|--------------------------------------------------------------------|
A|--------------------------------------------------------------------|
D|-2-2-2-2-2-2-2-4-0-0-0-0--2-2-2-2-2-2-2-4-0-0-0-0---2~-2-2-2-2-2-2--|



Chorus:

G|--------------2-2-------------------------------------|
D|-----4~-4-4-4-----0~-0-0-0-----4~-4-4-4-0-0-2~-2-2-2--|
A|-5-5-----------------------5-5------------------------|
D|------------------------------------------------------|

G|--------------2-2-------------------2~-2-2-2-----------------------------|
D|-----4~-4-4-4-----0~-0-0-0----0-0-0----------4-4-4-2~-2-2-2--------------|
A|-5-5--------------------------------------------------------0(x8)-2(x8)--|
D|-------------------------------------------------------------------------|



Bridge:

G|----------------------------------------------------------------|
D|-4(x8)-2(x8)-4(x8)-0(x8)--4(x8)-2(x8)-4(x8)-0(x8)--2~-----------|
A|---------------------------------------------------------2(x8)--|
D|----------------------------------------------------------------|



Chorus:

G|--------------2-2-------------------------------------|
D|-----4~-4-4-4-----0~-0-0-0-----4~-4-4-4-0-0-2~-2-2-2--|
A|-5-5-----------------------5-5------------------------|
D|------------------------------------------------------|

G|--------------2-2-------------------2~-2-2-2------------------|
D|-----4~-4-4-4-----0~-0-0-0----0-0-0----------4-4-4-2~-2-2-2---|
A|-5-5----------------------------------------------------------|
D|--------------------------------------------------------------|


G|-------2~-2-2-2-----------------------2~-2-2-2---------------|
D|-0-0-0----------4-4-4-2~--2-2-2-0-0-0----------4-4-4-2~--0~--|
A|-------------------------------------------------------------|
D|-------------------------------------------------------------|






| /  slide up
| \  slide down
| h  hammer-on
| p  pull-off
| ~  vibrato
| +  harmonic
| x  Mute note
===============================================================================
Suggest correction
comments
print report bad tab
guest
You may want to rate the tab now too:
select rating
Wanna post a correction for this tab? Suggest correction