Oops, an error
Loading. Please wait.
We have an official Never Too Late tab made by UG professional guitarists. Check out the tab »
×
69,803 views 33 this week
10 commentsread comments
1 2 3 4 5
x 30
add to favorites
launch autoscroll
font size
0
reset
guitar tuner
backing track
0:00
0:00
Autoscroll
slow
fast
+/-
esc
set tempo
stop
Difficulty
Tuning
novice
D A D G
Tabbed by: Carey Limberg

Tuning: Drop D

[Verse]
(start with drums or 0:25)
G|-----------------------------------------|     
D|-----------------------------------------|
A|-----------------------------------------|
D|-8-10-0-----8-10-0-----8-10-0-----7---10-|

[Chorus]
G|--------------------------------------------|
D|--------------------------------------------|
A|--------------------------------------------|
D|-0-8-7-10---0-8-7-10---0-8-7-10---88-0-7-10-|

[Verse]
G|-----------------------------------------|     
D|-----------------------------------------|
A|-----------------------------------------|
D|-8-10-0-----8-10-0-----8-10-0-----7---10-| (x2)

[Chorus]
G|--------------------------------------------|
D|--------------------------------------------|
A|--------------------------------------------|
D|-0-8-7-10---0-8-7-10---0-8-7-10---88-0-7-10-|

[Bridge]
G|-------------|         G|-------------|
D|-------------|         D|-------------|
A|-------------|         A|-------------|
D|-8--8---3-10-| (x3)    D|-8--8---7-10-|    

(break)
(start with drums or 2:33)

[Chorus/Outro]
G|--------------------------------|         G|-------------|
D|--------------------------------|         D|-------------|
A|--------------------------------|         A|-------------|
D|-0-8-7-10---0-8-7-10---0-8-7-10-| (x3)    D|--88-0--7-10-| (x3)
Suggest correction
comments
print report bad tab
10 comments total. Showing first comments.
0 reply
__Ronnie__ 1,009 Feb 15, 2007 09:51 AM

Great job to whoever tabbed this. Thank you for posting it, I've been waiting for a Never Too Late bass tab for a few months now and I cant tab out songs myself yet. :(

0 reply
hockeyboi86 20 Feb 25, 2007 04:52 PM

Thanks for the tab, I dont tab myself yet, and this is my fave song!

0 reply
wes_jett2008 505 Mar 21, 2007 09:35 PM

Nice tab..5 stars.

And to the guys above,Most TDG songs have the most just follow the guitar so if you want to play bass to TDG songs just play the root notes of the guitars.

guest
Wanna post a correction for this tab? Suggest correction