Oops, an error
Loading. Please wait.

Never Too Late Tab

version 1
version 1

Intro

  • This is a simplistic fingerstyle take as such it i... Show more

Whole song

256 views 12 this week
no commentswrite comment
1 2 3 4 5
3 more votes to show rating
add to favorites
launch autoscroll
font size
0
reset
how to read this tab
guitar tuner
Autoscroll
slow
fast
+/-
esc
set tempo
stop
Help us to improve Ultimate-Guitar.com Take our survey!
×
Author
Difficulty
Capo
novice
2nd fret
About this tab version
This is a simplistic fingerstyle take as such it is not accurate, its made to sound good and be fun to play. Was this info helpful? Yes No
ok well this is in drop D tuning, but i play it in standard by using a capo all cool like....

I place my capo upside down on the second fret but pull it down a little
to not cover the low E, which simulates Drop D
just in case that didn't make sense..... see diagram below
then on the strings where there is a capo, play in relation
to the capo and enjoy :)

   My Capo on 2nd
         |
         V
e|-------|----|
B|-------|----|
G|-------|----|
D|-------|----|
A|-------|----|
E|------------|

played a lot throughout the song though

[Intro]
e|--------------------------------------------------------------------|
B|-----------1-----------------------------------------1--------------|
G|--------------------------------------------------------------------|
D|---------3-------3p0--------10---8---7--0---h3-----3--------3p0-----|
A|----3---------------------0------0----------h3----------------------|
E|-------------------0--------------------0---------------------0-----|


e|---------------------------------------------------------------------------------------------|
B|-----------------------------1---------------------------------------0-------1---------------|
G|-----------------------------------------------------------------------------0-|Let it ring|-|
D|-----10---8---7--0--h3-----3-------3p0-------10---8---7--0---------2-------2-3---------------|
A|---0------0---------h3---------------------0------0----------2---------------3---------------|
E|-----------------0-------------------0-------------------0-----------------------------------|


************************************

| h  Hammer-on
| p  Pull-off 

************************************
Suggest correction
Give kudos to tab author, rate the tab!
1 2 3 4 5
comments
print report bad tab
guest
You may want to rate the tab now too:
select rating
Wanna post a correction for this tab? Suggest correction