Oops, an error
Loading. Please wait.

Never Too Late Tab

version 1
version 1

Whole song

1,368,158 views 1,548 this week
82 commentsread comments
1 2 3 4 5
excellent!
x 249
add to favorites
launch autoscroll
font size
0
reset
how to read this tab
guitar tuner
Autoscroll
slow
fast
+/-
esc
set tempo
stop
Help us to improve Ultimate-Guitar.com Take our survey!
×
Author
Difficulty
Tuning
novice
D A D G B E
Artist : Three Days Grace
Album  : One-X
Song   : Never Too Late
Tuning : Drop D



[Intro]

  Moderately Q=147
  (Bbsus2)            (Dm)
 4/4
  Gtr I
  Q  E  E  +E  E Q    +E  E  E  +E  E +E  E E
SUBSTITUE THIS
e|-------------------|-------------------------|
B|-------------------|-------------------------|
G|-------------------|-------------------------|
D|-------10----------|-----10--8--7--0---------| <---CORRECT WAY!
A|----8------8-------|--0~~--------------------|   JUST SUBSTITUTE IT
E|-8------------0~~~-|-------------------------|   THROUGHOUT


   (Bbsus2)            (Dm)
   Q  E  E  +E  E Q    +E  E  E  +E  E +E  E E
e|-------------------|-------------------------|
B|-------------------|-------------------------|
G|-------------------|-------------------------|
D|------10-(10)------|-----0-10-(10)-8-(8)-7---|
A|----8---------8----|-----------------------8-|
E|-8--------------0--|-(0)---------------------|


   (Bbsus2)            (Dm)                      (Am)           C5
   Q  E  E  +E  E Q    +E  E  E  +E  E +E  E E   Q  E  E  +E  E  Q     +W
e|-------------------|-------------------------|--------------------|---------||
B|-------------------|-------------------------|--------------------|---------||
G|-------------------|-------------------------|--------------------|---------||
D|------10-(10)------|-----0-10-(10)-8-(8)-7---|------10-(10)---10--|-(10)----||
A|----8---------8----|-----------------------8-|----7---------7-10--|-(10)----||
E|-8--------------0--|-(0)---------------------|-7--------------10--|-(10)----||


[Pre-chorus]

   (Bbsus2)            (Dm)
   Q  E  E  +E  E Q    +E  E  E  +E  E +E  E E
e|-------------------|-------------------------|
B|-------------------|-------------------------|
G|-------------------|-------------------------|
D|------10-(10)------|-----0-10-(10)-8-(8)-7---|
A|----8---------8----|-----------------------8-|
E|-8--------------0--|-(0)---------------------|


   (Bbsus2)            (Dm)
   Q  E  E  +E  E Q    +E  E  E  +E  E +E  E E
e|-------------------|-------------------------|
B|-------------------|-------------------------|
G|-------------------|-------------------------|
D|------10-(10)------|-----0-10-(10)-8-(8)-7---|
A|----8---------8----|-----------------------8-|
E|-8--------------0--|-(0)---------------------|


   (Bbsus2)            (Dm)                      (Am)           C5
   Q  E  E  +E  E Q    +E  E  E  +E  E +E  E E   Q  E  E  +E  E  Q     +W
e|-------------------|-------------------------|--------------------|---------||
B|-------------------|-------------------------|--------------------|---------||
G|-------------------|-------------------------|--------------------|---------||
D|------10-(10)------|-----0-10-(10)-8-(8)-7---|------10-(10)---10--|-(10)----||
A|----8---------8----|-----------------------8-|----7---------7-10--|-(10)----||
E|-8--------------0--|-(0)---------------------|-7--------------10--|-(10)----||


[Verse]

   (Bbsus2)               (Dm)
    Q   E  E  +E   E Q    +E   E  E  +E   E  +E   E  E
e|----------------------|------------------------------|
B|----------------------|------------------------------|
G|----------------------|------------------------------|
D|--------10-(10)-------|------0-10-(10)--8--(8)--7----|
A|------8----------8----|----------------------------8-|
E|--8----------------0--|-(0)--------------------------|
|
 | Gtr II
 |  Q   E  E  +E   E Q    +E   E  E  +E   E  +E   E  E
e|----------------------|------------------------------|
B|--------13-(13)-------|--------13-(13)---------------|
G|----------------------|----------------15-(15)-14----|
D|-----15---------15----|-----12--------------------15-|
A|-13-------------------|------------------------------|
E|-------------------0--|-(0)--------------------------|


   (Bbsus2)               (Dm)
    Q   E  E  +E   E Q    +E   E  E  +E   E  +E   E  E
e|----------------------|------------------------------|
B|----------------------|------------------------------|
G|----------------------|------------------------------|
D|--------10-(10)-------|------0-10-(10)--8--(8)--7----|
A|------8----------8----|----------------------------8-|
E|--8----------------0--|-(0)--------------------------|
|
 |  Q   E  E  +E   E Q    +E   E  E  +E   E  +E   E  E
e|----------------------|------------------------------|
B|--------13-(13)-------|--------13-(13)---------------|
G|----------------------|----------------15-(15)-14----|
D|-----15---------15----|-----12--------------------15-|
A|-13-------------------|------------------------------|
E|-------------------0--|-(0)--------------------------|


   (Bbsus2)               (Dm)
    Q   E  E  +E   E Q    +E   E  E  +E   E  +E   E  E
e|----------------------|------------------------------|
B|----------------------|------------------------------|
G|----------------------|------------------------------|
D|--------10-(10)-------|------0-10-(10)--8--(8)--7----|
A|------8----------8----|----------------------------8-|
E|--8----------------0--|-(0)--------------------------|
|
 |  Q   E  E  +E   E Q    +E   E  E  +E   E  +E   E  E
e|----------------------|------------------------------|
B|--------13-(13)-------|--------13-(13)---------------|
G|----------------------|----------------15-(15)-14----|
D|-----15---------15----|-----12--------------------15-|
A|-13-------------------|------------------------------|
E|-------------------0--|-(0)--------------------------|


   (Am)              C5
    Q   E  E  +E   E  Q     +W
e|-----------------------|---------||
B|-----------------------|---------||
G|-----------------------|---------||
D|--------10-(10)----10--|-(10)----||
A|------7----------7-10--|-(10)----||
E|--7----------------10--|-(10)----||
|
 |  Q   E  E  +E   E  Q     +W
e|-----------------------|---------||
B|--------13-(13)----13--|-(13)----||
G|-------------------12--|-(12)----||
D|-----14---------14-10--|-(10)----||
A|-12--------------------|---------||
E|-----------------------|---------||


[Chorus]

     $
     D5          Bb5
     Gtr III
      Q.   E E E  Q     +E  E +Q   E +E  E E
e||------------------|-----------------------|
B||o-----------------|-----------------------|
G||------------------|-----------------------|
D||---0----0-0----8--|--(8)-8-(8)--8-(8)-8-8-|
A||o--0----0-0----8--|--(8)-8-(8)--8-(8)-8-8-|
E||---0----0-0----8--|--(8)-8-(8)--8-(8)-8-8-|
|
 |   Gtr IV
 |    H.          Q     +W
e||--17--------------|-----------------------|
B||o-------------15--|-(15)------------------|
G||------------------|-----------------------|
D||------------------|-----------------------|
A||o-----------------|-----------------------|
E||------------------|-----------------------|


   A5          C5
    Q.   E E E  Q     +E   Q.    Q   E  E
e|-----------------|------------------------||
B|-----------------|-----------------------o||
G|-----------------|------------------------||
D|--7----7-7---10--|-(10)-10----10--10-10---||
A|--7----7-7---10--|-(10)-10----10--10-10--o||
E|--7----7-7---10--|-(10)-10----10--10-10---||
|
 |  H.          Q     +W
e|-15--------------|------------------------||
B|-------------13--|-(13)------------------o||
G|-----------------|------------------------||
D|-----------------|------------------------||
A|-----------------|-----------------------o||
E|-----------------|------------------------||


   D5                 Bb5
    Q.        E  E  E  Q      +E   E +Q      E +E   E  E
e|--------------------------|----------------------------|
B|--------------------------|----------------------------|
G|--------------------------|----------------------------|
D|--0---------0--0-----8----|-(8)--8-(8)-----8-(8)--8--8-|
A|--0---------0--0-----8----|-(8)--8-(8)-----8-(8)--8--8-|
E|--0---------0--0-----8----|-(8)--8-(8)-----8-(8)--8--8-|
|
 |  E   E  E  E  E  E  E  E    E   E  E   E  E  E   E  E
e|-17--13----17-13----17-13-|-----17-13-----17-13--------|
B|--------15-------15-------|-15---------15--------15----|
G|--------------------------|-------------------------14-|
D|--------------------------|----------------------------|
A|--------------------------|----------------------------|
E|--------------------------|----------------------------|


                                               To Coda
   A5                 C5
    Q.        E  E  E  Q       +E   Q.        Q     E  E
e|--------------------------|----------------------------|
B|--------------------------|----------------------------|
G|--------------------------|----------------------------|
D|--7---------7--7----10----|-(10)-10--------10----10-10-|
A|--7---------7--7----10----|-(10)-10--------10----10-10-|
E|--7---------7--7----10----|-(10)-10--------10----10-10-|
|
 |  E   E  E  E  E  E  E  E     E   E   E  E  E  E  E  E
e|-12--------12-------12----|------12--------13----------|
B|-----13-------13-------13-|----------13-------13-------|
G|--------14-------14-------|--14---------14-------14-15-|
D|--------------------------|----------------------------|
A|--------------------------|----------------------------|
E|--------------------------|----------------------------|


   Bb5               D5
    E  E  E  E  Q     Q      +E   E +Q      E +E   E  E
e|-------------------------|----------------------------|
B|-------------------------|----------------------------|
G|-------------------------|----------------------------|
D|--8--8--8--8--------0----|-(0)--0-(0)-----0-(0)--0--0-|
A|--8--8--8--8--------0----|-(0)--0-(0)-----0-(0)--0--0-|
E|--8--8--8--8--------0----|-(0)--0-(0)-----0-(0)--0--0-|
|
 |  E  E  E  E  E  E  E  E    E   E  E   E  E  E   E  E
e|-17-13----17-13----17-13-|-----17-13-----17-13-----17-|
B|-------15-------15-------|-15---------15--------15----|
G|-------------------------|----------------------------|
D|-------------------------|----------------------------|
A|-------------------------|----------------------------|
E|-------------------------|----------------------------|


   A5                C5
    E  E  E  E  Q     Q     +W
e|-----------------------|---------||
B|-----------------------|---------||
G|-----------------------|---------||
D|--7--7--7--7-------10--|-(10)----||
A|--7--7--7--7-------10--|-(10)----||
E|--7--7--7--7-------10--|-(10)----||
|
 |  E  E  E  E  E  E  Q     +W
e|-12-------12-------12--|---------||
B|----13-------13--------|-(17)----||
G|-------14-------14-----|---------||
D|-----------------------|---------||
A|-----------------------|---------||
E|-----------------------|---------||


[Verse 2]

   (Bbsus2)               (Dm)
   Gtr IV
    >
    W                      +W
e|----------------------|-------------------------------|
B|-15-------------------|-(15)--------------------------|
G|----------------------|-------------------------------|
D|----------------------|-------------------------------|
A|----------------------|-------------------------------|
E|----------------------|-------------------------------|
|
 | Gtr I
 |  Q   E  E  +E   E Q     +E   E  E  +E   E  +E   E  E
e|----------------------|-------------------------------|
B|----------------------|-------------------------------|
G|----------------------|-------------------------------|
D|--------10-(10)-------|-------0-10-(10)--8--(8)--7----|
A|------8----------8----|-----------------------------8-|
E|--8----------------0--|--(0)--------------------------|
|
 | Gtr II
 |  Q   E  E  +E   E Q     +E   E  E  +E   E  +E   E  E
e|----------------------|-------------------------------|
B|--------13-(13)-------|---------13-(13)---------------|
G|----------------------|-----------------15-(15)-14----|
D|-----15---------15----|------12--------------------15-|
A|-13-------------------|-------------------------------|
E|-------------------0--|--(0)--------------------------|


   (Bbsus2)               (Dm)
    W                      W
e|----------------------|------------------------------|
B|----------------------|------------------------------|
G|----------------------|------------------------------|
D|----------------------|------------------------------|
A|----------------------|------------------------------|
E|----------------------|------------------------------|
|
 |  Q   E  E  +E   E Q    +E   E  E  +E   E  +E   E  E
e|----------------------|------------------------------|
B|----------------------|------------------------------|
G|----------------------|------------------------------|
D|--------10-(10)-------|------0-10-(10)--8--(8)--7----|
A|------8----------8----|----------------------------8-|
E|--8----------------0--|-(0)--------------------------|
|
 |  Q   E  E  +E   E Q    +E   E  E  +E   E  +E   E  E
e|----------------------|------------------------------|
B|--------13-(13)-------|--------13-(13)---------------|
G|----------------------|----------------15-(15)-14----|
D|-----15---------15----|-----12--------------------15-|
A|-13-------------------|------------------------------|
E|-------------------0--|-(0)--------------------------|


   (Bbsus2)               (Dm)
   Gtr I
    Q   E  E  +E   E Q    +E   E  E  +E   E  +E   E  E
e|----------------------|------------------------------|
B|----------------------|------------------------------|
G|----------------------|------------------------------|
D|--------10-(10)-------|------0-10-(10)--8--(8)--7----|
A|------8----------8----|----------------------------8-|
E|--8----------------0--|-(0)--------------------------|
|
 | Gtr II
 |  Q   E  E  +E   E Q    +E   E  E  +E   E  +E   E  E
e|----------------------|------------------------------|
B|--------13-(13)-------|--------13-(13)---------------|
G|----------------------|----------------15-(15)-14----|
D|-----15---------15----|-----12--------------------15-|
A|-13-------------------|------------------------------|
E|-------------------0--|-(0)--------------------------|


   (Am)              C5
    Q   E  E  +E   E  Q     +W
e|-----------------------|---------|
B|-----------------------|---------|
G|-----------------------|---------|
D|--------10-(10)----10--|-(10)----|
A|------7----------7-10--|-(10)----|
E|--7----------------10--|-(10)----|
|
 |  Q   E  E  +E   E  Q     +W
e|-----------------------|---------|
B|--------13-(13)----13--|-(13)----|
G|-------------------12--|-(12)----|
D|-----14---------14-10--|-(10)----|
A|-12--------------------|---------|
E|-----------------------|---------|


   (Bbsus2)               (Dm)
    Q   E  E  +E   E Q    +E   E  E  +E   E  +E   E  E
e|----------------------|------------------------------|
B|----------------------|------------------------------|
G|----------------------|------------------------------|
D|--------10-(10)-------|------0-10-(10)--8--(8)--7----|
A|------8----------8----|----------------------------8-|
E|--8----------------0--|-(0)--------------------------|
|
 |  Q   E  E  +E   E Q    +E   E  E  +E   E  +E   E  E
e|----------------------|------------------------------|
B|--------13-(13)-------|--------13-(13)---------------|
G|----------------------|----------------15-(15)-14----|
D|-----15---------15----|-----12--------------------15-|
A|-13-------------------|------------------------------|
E|-------------------0--|-(0)--------------------------|


   (Bbsus2)               (Dm)
    Q   E  E  +E   E Q    +E   E  E  +E   E  +E   E  E
e|----------------------|------------------------------|
B|----------------------|------------------------------|
G|----------------------|------------------------------|
D|--------10-(10)-------|------0-10-(10)--8--(8)--7----|
A|------8----------8----|----------------------------8-|
E|--8----------------0--|-(0)--------------------------|
|
 |  Q   E  E  +E   E Q    +E   E  E  +E   E  +E   E  E
e|----------------------|------------------------------|
B|--------13-(13)-------|--------13-(13)---------------|
G|----------------------|----------------15-(15)-14----|
D|-----15---------15----|-----12--------------------15-|
A|-13-------------------|------------------------------|
E|-------------------0--|-(0)--------------------------|


   (Bbsus2)               (Dm)
    Q   E  E  +E   E Q    +E   E  E  +E   E  +E   E  E
e|----------------------|------------------------------|
B|----------------------|------------------------------|
G|----------------------|------------------------------|
D|--------10-(10)-------|------0-10-(10)--8--(8)--7----|
A|------8----------8----|----------------------------8-|
E|--8----------------0--|-(0)--------------------------|
|
 |  Q   E  E  +E   E Q    +E   E  E  +E   E  +E   E  E
e|----------------------|------------------------------|
B|--------13-(13)-------|--------13-(13)---------------|
G|----------------------|----------------15-(15)-14----|
D|-----15---------15----|-----12--------------------15-|
A|-13-------------------|------------------------------|
E|-------------------0--|-(0)--------------------------|


                    D.S. al Coda
   (Am)              C5
    Q   E  E  +E   E  Q     +W
e|-----------------------|----------||
B|-----------------------|----------||
G|-----------------------|----------||
D|--------10-(10)----10--|-(10)-----||
A|------7----------7-10--|-(10)-----||
E|--7----------------10--|-(10)-----||
|
 |  Q   E  E  +E   E  Q     +W
e|-----------------------|----------||
B|--------13-(13)----13--|-(13)-----||
G|-------------------12--|-(12)-----||
D|-----14---------14-10--|-(10)-----||
A|-12--------------------|----------||
E|-----------------------|----------||


[Chorus]

   &
   Bb5               D5
   Gtr III
    E  E  E  E  Q     Q      +E   E +Q      E +E   E  E
e|-------------------------|----------------------------|
B|-------------------------|----------------------------|
G|-------------------------|----------------------------|
D|--8--8--8--8--------0----|-(0)--0-(0)-----0-(0)--0--0-|
A|--8--8--8--8--------0----|-(0)--0-(0)-----0-(0)--0--0-|
E|--8--8--8--8--------0----|-(0)--0-(0)-----0-(0)--0--0-|
|
 | Gtr IV
 |  E  E  E  E  E  E  E  E    E   E  E   E  E  E   E  E
e|-17-13----17-13----17-13-|-----17-13-----17-13-----17-|
B|-------15-------15-------|-15---------15--------15----|
G|-------------------------|----------------------------|
D|-------------------------|----------------------------|
A|-------------------------|----------------------------|
E|-------------------------|----------------------------|


   A5                C5
    E  E  E  E  Q     Q       +E   E  E  E  E  E  E  E
e|-------------------------|---------------------------||
B|-------------------------|---------------------------||
G|-------------------------|---------------------------||
D|--7--7--7--7-------10----|-(10)-10-10-10-10-10-10-10-||
A|--7--7--7--7-------10----|-(10)-10-10-10-10-10-10-10-||
E|--7--7--7--7-------10----|-(10)-10-10-10-10-10-10-10-||
|
 |  E  E  E  E  E  E  E  E     E   E  E  E  E  E  E  E
e|-12-------12-------12----|------12-------13-------12-||
B|----13-------13-------13-|---------13-------13-------||
G|-------14-------14-------|--14--------14-------14----||
D|-------------------------|---------------------------||
A|-------------------------|---------------------------||
E|-------------------------|---------------------------||


[Bridge]

     Bb5                               F5        C5
     Gtrs III, IV
     E E E E Q  E E   E E Q  E E E E   Q.   Q.   Q    +E  E E +E  E +E  E E   3x
e||-----------------|----------------|--------------|-------------------------||
B||o----------------|----------------|--------------|------------------------o||
G||-----------------|----------------|-----------5--|-(5)-5-5-(5)-5-(5)-5-5---||
D||--8-8-8-8----8-8-|-8-8----8-8-8-8-|-3----3----5--|-(5)-5-5-(5)-5-(5)-5-5---||
A||o-8-8-8-8----8-8-|-8-8----8-8-8-8-|-3----3----3--|-(3)-3-3-(3)-3-(3)-3-3--o||
E||--8-8-8-8----8-8-|-8-8----8-8-8-8-|-3----3-------|-------------------------||


   Bb5                         A5          C5
   Q  Q  Q  Q    Q  Q  Q  Q    E E E E E E  Q     +W
e|-------------|-------------|-----------------|---------||
B|-------------|-------------|-----------------|---------||
G|-------------|-------------|-----------------|---------||
D|-8--8--8--8--|-8--8--8--8--|-7-7-7-7---x-10--|-(10)----||
A|-8--8--8--8--|-8--8--8--8--|-7-7-7-7---x-10--|-(10)----||
E|-8--8--8--8--|-8--8--8--8--|-7-7-7-7---x-10--|-(10)----||


[Guitar Break]

   (Bbsus2)             (Dm)          (Bbsus2)             (Dm)
   Gtr I
   Q  E  E  +E  E  Q     +W           Q  E  E  +E  E  Q     +W
e|--------------------|-------------|--------------------|---------|
B|--------------------|-------------|--------------------|---------|
G|--------------------|-------------|--------------------|---------|
D|------10-(10)---12--|-(12)--------|------10-(10)---12--|-(12)----|
A|----8---------------|-------------|----8---------------|---------|
E|-8------------0-----|-------------|-8------------0-----|---------|


   (Bbsus2)             (Dm)          Bb
   Q  E  E  +E  E  Q     +W            W           +W
e|--------------------|-------------|-----------|---------||
B|--------------------|-------------|-----------|---------||
G|--------------------|-------------|-----------|---------||
D|------10-(10)---12--|-(12)--------|-12--------|-(12)----||
A|----8---------------|-------------|--8--------|--(8)----||
E|-8------------0-----|-------------|--8--------|--(8)----||


[Chorus]

     D5          Bb5
     Gtr III
      Q.   E E E  Q     +E  E +Q   E +E  E E
e||------------------|-----------------------|
B||o-----------------|-----------------------|
G||------------------|-----------------------|
D||---0----0-0----8--|--(8)-8-(8)--8-(8)-8-8-|
A||o--0----0-0----8--|--(8)-8-(8)--8-(8)-8-8-|
E||---0----0-0----8--|--(8)-8-(8)--8-(8)-8-8-|
|
 |   Gtr IV
 |    H.          Q     +W
e||--17--------------|-----------------------|
B||o-------------15--|-(15)------------------|
G||------------------|-----------------------|
D||------------------|-----------------------|
A||o-----------------|-----------------------|
E||------------------|-----------------------|


   A5          C5
    Q.   E E E  Q     +E   Q.    Q   E  E
e|-----------------|------------------------||
B|-----------------|-----------------------o||
G|-----------------|------------------------||
D|--7----7-7---10--|-(10)-10----10--10-10---||
A|--7----7-7---10--|-(10)-10----10--10-10--o||
E|--7----7-7---10--|-(10)-10----10--10-10---||
|
 |  H.          Q     +W
e|-15--------------|------------------------||
B|-------------13--|-(13)------------------o||
G|-----------------|------------------------||
D|-----------------|------------------------||
A|-----------------|-----------------------o||
E|-----------------|------------------------||


   D5                 Bb5
    Q.        E  E  E  Q      +E   E +Q      E +E   E  E
e|--------------------------|----------------------------|
B|--------------------------|----------------------------|
G|--------------------------|----------------------------|
D|--0---------0--0-----8----|-(8)--8-(8)-----8-(8)--8--8-|
A|--0---------0--0-----8----|-(8)--8-(8)-----8-(8)--8--8-|
E|--0---------0--0-----8----|-(8)--8-(8)-----8-(8)--8--8-|
|
 |  E   E  E  E  E  E  E  E    E   E  E   E  E  E   E  E
e|-17--13----17-13----17-13-|-----17-13-----17-13--------|
B|--------15-------15-------|-15---------15--------15----|
G|--------------------------|-------------------------14-|
D|--------------------------|----------------------------|
A|--------------------------|----------------------------|
E|--------------------------|----------------------------|


   A5                 C5
    Q.        E  E  E  Q       +E   Q.        Q     E  E
e|--------------------------|----------------------------|
B|--------------------------|----------------------------|
G|--------------------------|----------------------------|
D|--7---------7--7----10----|-(10)-10--------10----10-10-|
A|--7---------7--7----10----|-(10)-10--------10----10-10-|
E|--7---------7--7----10----|-(10)-10--------10----10-10-|
|
 |  E   E  E  E  E  E  E  E     E   E   E  E  E  E  E  E
e|-12--------12-------12----|------12--------13----------|
B|-----13-------13-------13-|----------13-------13-------|
G|--------14-------14-------|--14---------14-------14-15-|
D|--------------------------|----------------------------|
A|--------------------------|----------------------------|
E|--------------------------|----------------------------|


   Bb5               D5
    E  E  E  E  Q     Q      +E   E +Q      E +E   E  E
e|-------------------------|----------------------------|
B|-------------------------|----------------------------|
G|-------------------------|----------------------------|
D|--8--8--8--8--------0----|-(0)--0-(0)-----0-(0)--0--0-|
A|--8--8--8--8--------0----|-(0)--0-(0)-----0-(0)--0--0-|
E|--8--8--8--8--------0----|-(0)--0-(0)-----0-(0)--0--0-|
|
 |  E  E  E  E  E  E  E  E    E   E  E   E  E  E   E  E
e|-17-13----17-13----17-13-|-----17-13-----17-13-----17-|
B|-------15-------15-------|-15---------15--------15----|
G|-------------------------|----------------------------|
D|-------------------------|----------------------------|
A|-------------------------|----------------------------|
E|-------------------------|----------------------------|


   A5                C5
    E  E  E  E  Q     Q       +E   E  E  E  E  E  E  E
e|-------------------------|---------------------------|
B|-------------------------|---------------------------|
G|-------------------------|---------------------------|
D|--7--7--7--7-------10----|-(10)-10-10-10-10-10-10-10-|
A|--7--7--7--7-------10----|-(10)-10-10-10-10-10-10-10-|
E|--7--7--7--7-------10----|-(10)-10-10-10-10-10-10-10-|
|
 |  E  E  E  E  E  E  E  E     E   E  E  E  E  E  E  E
e|-12-------12-------12----|------12-------13-------12-|
B|----13-------13-------13-|---------13-------13-------|
G|-------14-------14-------|--14--------14-------14----|
D|-------------------------|---------------------------|
A|-------------------------|---------------------------|
E|-------------------------|---------------------------|


   Bb5          D5
    E  E E E Q   Q     +E  E +Q   E +E  E E
e|------------------|-----------------------|
B|------------------|-----------------------|
G|------------------|-----------------------|
D|--8--8-8-8-----0--|--(0)-0-(0)--0-(0)-0-0-|
A|--8--8-8-8-----0--|--(0)-0-(0)--0-(0)-0-0-|
E|--8--8-8-8-----0--|--(0)-0-(0)--0-(0)-0-0-|
|
 |  H.           Q     +W
e|-17---------------|-----------------------|
B|--------------15--|-(15)------------------|
G|------------------|-----------------------|
D|------------------|-----------------------|
A|------------------|-----------------------|
E|------------------|-----------------------|


   A5           C5
    E  E E E Q   Q     +E   E  E  E  E  E  E  E
e|------------------|---------------------------|
B|------------------|---------------------------|
G|------------------|---------------------------|
D|--7--7-7-7----10--|-(10)-10-10-10-10-10-10-10-|
A|--7--7-7-7----10--|-(10)-10-10-10-10-10-10-10-|
E|--7--7-7-7----10--|-(10)-10-10-10-10-10-10-10-|
|
 |  H.           Q     +W
e|-15---------------|---------------------------|
B|--------------13--|-(13)----------------------|
G|------------------|---------------------------|
D|------------------|---------------------------|
A|------------------|---------------------------|
E|------------------|---------------------------|


   Bb5          D5                            A5           C5
    E  E E E Q   Q     +E  E +Q   E +E  E E    E  E E E Q   Q     +W
e|------------------|-----------------------|------------------|---------||
B|------------------|-----------------------|------------------|---------||
G|------------------|-----------------------|------------------|---------||
D|--8--8-8-8-----0--|--(0)-0-(0)--0-(0)-0-0-|--7--7-7-7----10--|-(10)----||
A|--8--8-8-8-----0--|--(0)-0-(0)--0-(0)-0-0-|--7--7-7-7----10--|-(10)----||
E|--8--8-8-8-----0--|--(0)-0-(0)--0-(0)-0-0-|--7--7-7-7----10--|-(10)----||
|
 |  H.           Q     +W                      H.           Q     +W
e|-17---------------|-----------------------|-15---------------|---------||
B|--------------15--|-(15)------------------|--------------13--|-(13)----||
G|------------------|-----------------------|------------------|---------||
D|------------------|-----------------------|------------------|---------||
A|------------------|-----------------------|------------------|---------||
E|------------------|-----------------------|------------------|---------||


[Outro]

   (Bbsus2)            (Dm)
   Gtr I
   Q  E  E  +E  E Q    +E  E  E  +E  E +E  E E
e|-------------------|-------------------------|
B|-------------------|-------------------------|
G|-------------------|-------------------------|
D|------10-(10)------|-----0-10-(10)-8-(8)-7---|
A|----8---------8----|-----------------------8-|
E|-8--------------0--|-(0)---------------------|


   (Bbsus2)            (Dm)
   Q  E  E  +E  E Q    +E  E  E  +E  E +E  E E
e|-------------------|-------------------------|
B|-------------------|-------------------------|
G|-------------------|-------------------------|
D|------10-(10)------|-----0-10-(10)-8-(8)-7---|
A|----8---------8----|-----------------------8-|
E|-8--------------0--|-(0)---------------------|


   (Bbsus2)            (Dm)                      (Am)           C5
   Q  E  E  +E  E Q    +E  E  E  +E  E +E  E E   Q  E  E  +E  E  Q     +W
e|-------------------|-------------------------|--------------------|---------*|
B|-------------------|-------------------------|--------------------|---------*|
G|-------------------|-------------------------|--------------------|---------*|
D|------10-(10)------|-----0-10-(10)-8-(8)-7---|------10-(10)---10--|-(10)----*|
A|----8---------8----|-----------------------8-|----7---------7-10--|-(10)----*|
E|-8--------------0--|-(0)---------------------|-7--------------10--|-(10)----*|


********************************************
(n)  Ghost note
 x   on rhythm slash represents muted slash
********************************************
Suggest correction
What's this?
You can suggest a correction to this tab. Community and Mods will review your correction and vote to approve or reject it.
comments
print report bad tab
82 comments total. Showing first comments.
+3 reply
RS-GUITARIST 280 wrote on June 14 2006, 04:57 pm

This tab is easier to play than ver. 2. awsome job.

+3 reply
FrodoEV 58 wrote on July 13 2006, 02:29 pm

good job dude

+3 reply
U B the band 5,212 wrote on July 29 2006, 02:34 pm

sweet tab man 5 stars-PMT

guest
You may want to rate the tab now too:
select rating
Please do not post tabs as comments. Select "correction" instead!