Oops, an error
Loading. Please wait.

Never Too Late Bass Tab

version 2
version 2

Whole song

4,581 views 1 this week
1 commentread comment
1 2 3 4 5
please rate
add to favorites
launch autoscroll
font size
0
reset
guitar tuner
Autoscroll
slow
fast
+/-
esc
set tempo
stop
Help us to improve Ultimate-Guitar.com Take our survey!
×
Author
#----------------------------------PLEASE NOTE---------------------------------#
#This file is the author's own work and represents their interpretation of the #
#song. You may only use this file for private study, scholarship, or research. #
#------------------------------------------------------------------------------#

NEVER TOO LATE (Bassline)




Transcribed by Gary Ramsey

 

 

Gtr I (D A D G) - 'Staff'


  Q=150
 4/4
  Gtr I
  W          W          W          W
|----------|----------|----------|------|
|----------|----------|----------|------|
|----------|----------|----------|------|
|----------|----------|----------|------|


  W          W          W          W
|----------|----------|----------|------|
|----------|----------|----------|------|
|----------|----------|----------|------|
|----------|----------|----------|------|


  W          W          W          W
|----------|----------|----------|------|
|----------|----------|----------|------|
|----------|----------|----------|------|
|----------|----------|----------|------|


  W          W          W          W
|----------|----------|----------|------|
|----------|----------|----------|------|
|----------|----------|----------|------|
|----------|----------|----------|------|


  Q  E E E E Q    +E  E Q  H      Q  E E E E Q    +E  E Q  H
|---------------|---------------|---------------|---------------|
|---------------|---------------|---------------|---------------|
|-1--1-3-3-3----|---------------|-1--1-3-3-3----|---------------|
|------------0--|-(0)-0-0--0----|------------0--|-(0)-0-0--0----|


  Q  E E E E Q    +E  E Q  H      Q.   E Q  Q    +H     +H
|---------------|---------------|--------------|---------------|
|---------------|---------------|--------------|---------------|
|-1--1-3-3-3----|---------------|-0----0-0--3--|-(3)----(3)----|
|------------0--|-(0)-0-0--0----|--------------|---------------|


  Q.   E Q  Q    +Q   Q  H      Q.   E Q  Q    +E  E +S  S E Q  E E
|--------------|--------------|--------------|-----------------------|
|--------------|--------------|--------------|-----------------------|
|-----------1--|-(1)--1--1----|-0----0-0--3--|-(3)-3-(3)---3-3--3-5--|
|-0----0-0-----|--------------|--------------|-----------------------|


  Q.   E Q  Q    +Q   Q  H      Q.   E Q   Q     +E   E  +S  S  E  Q   E  E
|--------------|--------------|---------------|------------------------------|
|--------------|--------------|---------------|------------------------------|
|--------------|--------------|---------------|------------------------------|
|-0----0-0--8--|-(8)--8--8----|-7----7-7--10--|-(10)-10-(10)---10-10--10-12--|


  Q.   E Q  Q    +Q   Q  H      Q.   E Q   Q     +E   E  +S  S  E  Q   E  E
|--------------|--------------|---------------|------------------------------|
|--------------|--------------|---------------|------------------------------|
|--------------|--------------|---------------|------------------------------|
|-0----0-0--8--|-(8)--8--8----|-7----7-7--10--|-(10)-10-(10)---10-10--10-12--|


  E E E E S S E Q    +Q   Q  Q  Q    E E E E S S E  Q     +H      +H
|------------------|---------------|-------------------|-----------------|
|------------------|---------------|-------------------|-----------------|
|------------------|---------------|-------------------|-----------------|
|-8-8-8-8-8-----0--|-(0)--0--0--0--|-7-7-7-7-7-----10--|-(10)----(10)----|


  Q  E  E  E  E Q    +E  E Q  H      Q  E  E  E  E Q    +E  E Q  H
|------------------|---------------|------------------|---------------|
|------------------|---------------|------------------|---------------|
|------------------|---------------|------------------|---------------|
|-8--8-10-10-10-0--|-(0)-0-0--0----|-8--8-10-10-10-0--|-(0)-0-0--0----|


  Q  E  E  E  E Q    +E  E Q  H      Q.   E Q   Q     +H      +H
|------------------|---------------|---------------|-----------------|
|------------------|---------------|---------------|-----------------|
|------------------|---------------|---------------|-----------------|
|-8--8-10-10-10-0--|-(0)-0-0--0----|-7----7-7--10--|-(10)----(10)----|


  Q  E  E  E  E Q    +E  E Q  H      Q  E  E  E  E Q    +E  E Q  H
|------------------|---------------|------------------|---------------|
|------------------|---------------|------------------|---------------|
|------------------|---------------|------------------|---------------|
|-8--8-10-10-10-0--|-(0)-0-0--0----|-8--8-10-10-10-0--|-(0)-0-0--0----|


  Q  E  E  E  E Q    +E  E Q  H      Q.   E Q   Q     +H      +H
|------------------|---------------|---------------|-----------------|
|------------------|---------------|---------------|-----------------|
|------------------|---------------|---------------|-----------------|
|-8--8-10-10-10-0--|-(0)-0-0--0----|-7----7-7--10--|-(10)----(10)----|


  Q.   E Q  Q    +Q   Q  H      Q.   E Q   Q     +E   E  +S  S  E  Q   E  E
|--------------|--------------|---------------|------------------------------|
|--------------|--------------|---------------|------------------------------|
|--------------|--------------|---------------|------------------------------|
|-0----0-0--8--|-(8)--8--8----|-7----7-7--10--|-(10)-10-(10)---10-10--10-12--|


  Q.   E Q  Q    +Q   Q  H      Q.   E Q   Q     +E   E  +S  S  E  Q   E  E
|--------------|--------------|---------------|------------------------------|
|--------------|--------------|---------------|------------------------------|
|--------------|--------------|---------------|------------------------------|
|-0----0-0--8--|-(8)--8--8----|-7----7-7--10--|-(10)-10-(10)---10-10--10-12--|


  Q.   E Q  Q    +Q   Q  H      Q.   E Q   Q     +E   E  +S  S  E  Q   E  E
|--------------|--------------|---------------|------------------------------|
|--------------|--------------|---------------|------------------------------|
|--------------|--------------|---------------|------------------------------|
|-0----0-0--8--|-(8)--8--8----|-7----7-7--10--|-(10)-10-(10)---10-10--10-12--|


  E E E E S S E Q    +Q   Q  Q  Q
|------------------|---------------|
|------------------|---------------|
|------------------|---------------|
|-8-8-8-8-8-----0--|-(0)--0--0--0--|


  E E E E S S E  Q     E  E  E  E  E  E  E  E
|-------------------|-------------------------|
|-------------------|-------------------------|
|-------------------|-------------------------|
|-7-7-7-7-7-----10--|-10-10-10-10-10-10-10-10-|


  E E E E Q  E E   E E Q  E E E E   Q.   E Q  Q    +E  E Q  Q  Q
|----------------|----------------|--------------|----------------|
|----------------|----------------|--------------|----------------|
|----------------|----------------|-----------3--|-(3)-3-3--3--3--|
|-8-8-8-8----8-8-|-8-8----8-8-8-8-|-3----3-3-----|----------------|


  E E E E Q  E E   E E Q  E E E E   Q.   E Q  Q    +E  E Q  Q  Q
|----------------|----------------|--------------|----------------|
|----------------|----------------|--------------|----------------|
|-1-1-1-1----1-1-|-1-1----1-1-1-1-|-----------3--|-(3)-3-3--3--3--|
|----------------|----------------|-3----3-3-----|----------------|


  E E E E Q  E E   E E Q  E E E E   Q.   E Q  Q    +E  E Q  Q  Q
|----------------|----------------|--------------|----------------|
|----------------|----------------|--------------|----------------|
|-1-1-1-1----1-1-|-1-1----1-1-1-1-|-----------3--|-(3)-3-3--3--3--|
|----------------|----------------|-3----3-3-----|----------------|


  Q  Q  E E Q    Q  Q  Q  Q    E E E E +E  E Q    +H     +H
|--------------|-------------|------------------|---------------|
|--------------|-------------|------------------|---------------|
|-1--1--1-1-1--|-1--1--1--1--|-0-0-0-0-(0)---3--|-(3)----(3)----|
|--------------|-------------|------------------|---------------|


  W          W          W          W
|----------|----------|----------|------|
|----------|----------|----------|------|
|----------|----------|----------|------|
|----------|----------|----------|------|


  W          W          W          W
|----------|----------|----------|------|
|----------|----------|----------|------|
|----------|----------|----------|------|
|----------|----------|----------|------|


  Q.   E Q  Q    +Q   Q  H      Q.   E Q  Q    +E  E +S  S E Q  E E
|--------------|--------------|--------------|-----------------------|
|--------------|--------------|--------------|-----------------------|
|-----------1--|-(1)--1--1----|-0----0-0--3--|-(3)-3-(3)---3-3--3-5--|
|-0----0-0-----|--------------|--------------|-----------------------|


  Q.   E Q  Q    +Q   Q  H      Q.   E Q   Q     +E   E  +S  S  E  Q   E  E
|--------------|--------------|---------------|------------------------------|
|--------------|--------------|---------------|------------------------------|
|--------------|--------------|---------------|------------------------------|
|-0----0-0--8--|-(8)--8--8----|-7----7-7--10--|-(10)-10-(10)---10-10--10-12--|


  Q.   E Q  Q    +Q   Q  H      Q.   E Q   Q     +E   E  +S  S  E  Q   E  E
|--------------|--------------|---------------|------------------------------|
|--------------|--------------|---------------|------------------------------|
|--------------|--------------|---------------|------------------------------|
|-0----0-0--8--|-(8)--8--8----|-7----7-7--10--|-(10)-10-(10)---10-10--10-12--|


  E E E E Q  Q    +Q   Q  Q  Q    E E E E Q   Q     Q   Q   Q   Q
|---------------|---------------|----------------|-----------------|
|---------------|---------------|----------------|-----------------|
|---------------|---------------|----------------|-----------------|
|-8-8-8-8----0--|-(0)--0--0--0--|-7-7-7-7----10--|-10--10--10--10--|


  E E E E Q  Q    +Q   Q  Q  Q    E E E E Q   Q     Q   Q   Q   Q
|---------------|---------------|----------------|-----------------|
|---------------|---------------|----------------|-----------------|
|---------------|---------------|----------------|-----------------|
|-8-8-8-8----0--|-(0)--0--0--0--|-7-7-7-7----10--|-10--10--10--10--|


  E E E E Q  Q    +Q   Q  Q  Q    E E E E Q   Q     +H      +H
|---------------|---------------|----------------|-----------------*|
|---------------|---------------|----------------|-----------------*|
|---------------|---------------|----------------|-----------------*|
|-8-8-8-8----0--|-(0)--0--0--0--|-7-7-7-7----10--|-(10)----(10)----*|




--------------------------------------------------------------------------------


Duration Legend
---------------
W - whole; H - half; Q - quarter; E - 8th; S - 16th; T - 32nd; X - 64th; a - acciaccatura
+ - note tied to previous; . - note dotted; .. - note double dotted
Uncapitalized letters represent notes that are staccato (1/2 duration)
Irregular groupings are notated above the duration line
Duration letters will always appear directly above the note/fret number it represents the
duration for.  Duration letters with no fret number below them represent rests.  Multi-
bar rests are notated in the form Wxn, where n is the number of bars to rest for.  Low
melody durations appear below the staff

Tablature Legend
----------------
 h   - hammer-on
 p   - pull-off
 b   - bend
 pb  - pre-bend
 r   - bend release (if no number after the r, then release immediately)
 /\  - slide into or out of (from/to "nowhere")
 s   - legato slide
 S   - shift slide
 - natural harmonic
[n]  - artificial harmonic
n(n) - tapped harmonic
 ~   - vibrato
 tr  - trill
 T   - tap
 TP  - trem. picking
 PM  - palm muting
\n/  - tremolo bar dip; n = amount to dip
 \n  - tremolo bar down
 n/  - tremolo bar up
/n\  - tremolo bar inverted dip
 =   - hold bend; also acts as connecting device for hammers/pulls
 <> - volume swell (louder/softer)
 x   - on rhythm slash represents muted slash
 o   - on rhythm slash represents single note slash

Misc Legend
-----------
 |  - bar
||  - double bar
||o - repeat start
o|| - repeat end
*|  - double bar (ending)
 :  - bar (freetime)
 $  - Segno
 &  - Coda
Tempo markers -  = BPM(8/16=s8/s16), where s8 = swing 8ths, s16 = swing 16ths



--------------------------------------------------------------------------------

** Generated using Power Tab Editor by Brad Larsen: The Official Power Tab Web Site
Suggest correction
Give kudos to tab author, rate the tab!
1 2 3 4 5
comments
print report bad tab
1 comment total.
0 reply
Haloquadratum 110 wrote on February 27 2013, 12:35 pm

it wouldve been much better if you had shown time or where the chorus and verses start. now its just one big pile of notes.

guest
You may want to rate the tab now too:
select rating
Please do not post tabs as comments. Select "correction" instead!