Oops, an error
Loading. Please wait.

No More Bass Tab

version 1
version 1

Whole song

Interactive

2,722 views 1 this week
1 commentread comment
1 2 3 4 5
x 4
add to favorites
launch autoscroll
font size
0
reset
guitar tuner
Autoscroll
slow
fast
+/-
esc
set tempo
stop
Help us to improve Ultimate-Guitar.com Take our survey!
×
Author
Tuning
D A D G B E
-------------------------------------------------------------------------------
			     NO MORE - Three Days Grace
-------------------------------------------------------------------------------

Tabbed By : mariewong

Tuning: Drop D





Intro:

G|------------------------------------------|
D|----4---------4---------------------------|
A|-22---22-0-22---22-0----0---------0----0--|
D|---------------------00---00---00---00----|



Verse:
Give me a reason to stay here
Cause I don't wanna live in fear

G|------------------------------------------------------|
D|------------------------------------------------------|
A|-2-2-2-2-2~-22-2-22-2-22-2----------------------------|  [x2]
D|---------------------------0-0-0-0-0~-00-0-00-0-00-0--|



Pre-chorus:
I can stop the rain
But I can't stop the tears
Oh I can fight the fire
But I can't fight the fear

G|------------------------------|
D|------------------------------|
A|------------------------------|
D|-4(x16)-2(x16)-0(x16)-2(x16)--|



Chorus:
No more
I just can't live here
No more
I can't take it, can't take it
No more
What do we stand for 
When we all live in fear

G|-------------------------|        |---------------------------------|
D|-------------------------|        |---------------------------------|
A|-------------------------|  [x2]  |---------------------------------|
D|-0-0-00-0-0--4-4-44-4-4--|        |-2-2-22-2-2--2-2-22-2-2---0~-0~--|



Pre-verse:

G|------------------------------------------------------------------|
D|------------------------------------------------------------------|
A|------------------------------------------------------------------|
D|-4-4-44-4-44-44--4-4-44-4-44-44---0-0-00-0-00-00--0-0-00-0-00-00--|



Verse:
Give me a reason to believe
Cause you don't wanna see me leave

G|------------------------------------------------------|
D|------------------------------------------------------|
A|-2-2-2-2-2~-22-2-22-2-22-2----------------------------|  [x2]
D|---------------------------0-0-0-0-0~-00-0-00-0-00-0--|



Pre-chorus:
I can stop the rain
But I can't stop the tears
Oh I can fight the fire
But I can't fight the fear

G|------------------------------|
D|------------------------------|
A|------------------------------|
D|-4(x16)-2(x16)-0(x16)-2(x16)--|



Chorus:
No more
I just can't live here
No more
I can't take it, can't take it
No more
What do we stand for 
When we all live in fear

G|-------------------------|        |---------------------------------|
D|-------------------------|        |---------------------------------|
A|-------------------------|  [x2]  |---------------------------------|
D|-0-0-00-0-0--4-4-44-4-4--|        |-2-2-22-2-2--2-2-22-2-2---0~-0~--|



Bridge:

G|-----------------------------------------------------------------|
D|-----------------------------------------------------------------|
A|-----------------------------00------------------------------00--|
D|-4-4-44-4-44-44--4-4-44-4-44-----2-2-22-2-22-22--2-2-22-2-22-----|

G|-------------------------------------------------------------------|
D|-------------------------------------------------------------------|
A|-----------------------------00------------------------------0000--|
D|-4-4-44-4-44-44--4-4-44-4-44-----2-2-22-2-22-22--2-2-22-2-22-------|



Chorus:
No more
I just can't live here
No more
I can't take it, can't take it
No more
What do we stand for 
When we all live in fear

G|-----------------------------------------|
D|-----------------------------------------|
A|-----------------------------------------|
D|-0~--4-4-44-4-4--0-0-00-0-0--4-4-44-4-4--|

G|---------------------------------|
D|---------------------------------|
A|---------------------------------|
D|-2-2-22-2-2--2-2-22-2-2---0~-0~--|






| /  slide up
| \  slide down
| h  hammer-on
| p  pull-off
| ~  vibrato
| +  harmonic
| x  Mute note
===============================================================================
Suggest correction
comments
print report bad tab
1 comment total.
0 reply
outcast357 10 Oct 24, 2010 01:46 PM

sounds good to me

guest
You may want to rate the tab now too:
select rating
Wanna post a correction for this tab? Suggest correction