Oops, an error
Loading. Please wait.

No More Tab

version 1
version 1

Intro

Whole song

Interactive

2,034 views 1 this week
3 commentsread comments
1 2 3 4 5
worth learning
x 5
add to favorites
launch autoscroll
font size
0
reset
how to read this tab
guitar tuner
Autoscroll
slow
fast
+/-
esc
set tempo
stop
Help us to improve Ultimate-Guitar.com Take our survey!
×
Difficulty
novice
Just the Intro:
From:Jash

E----2-2-2--7---9(ring)------2-2-2--7--9-2-2-2-7--9-|
B---------------------------------------------------|
G---------------------------------------------------|
D---------------------------------------------------|
A---------------------------------------------------|
E---------------------------------------------------|

E----2-2-2--5-5--0(ring)-----2-2-2-5-5-0-2-2-5-5-0-|
B--------------------------------------------------|
G--------------------------------------------------|
D--------------------------------------------------|
A--------------------------------------------------|
E--------------------------------------------------|
comments
print report bad tab
3 comments total.
0 reply
wake behind you 461 wrote on March 24 2010, 06:03 pm

this tab is totally incorrect.

here's the riff, from the gp version 2


e|----------------9-------------------9----------------9--|
B|---------12------------------12---------------12--------|
G|------11-----11-----------11-----11--------11-----11----|
D|----9-------------------9----------------9--------------|
A|--------------------------------------------------------|
D|--9-------------------9----------------9----------------|

e|----------------0-------------------0----------------0--|
B|---------10------------------10---------------10--------|
G|------11-----11-----------11-----11--------11-----11----|
D|----9-------------------9----------------9--------------|
A|--------------------------------------------------------|
D|--0-------------------0----------------0----------------|

0 reply
xnimrodx1 69 wrote on June 29 2014, 08:58 pm

Clearly wrong.

0 reply
xBillie 72 wrote on September 29 2014, 06:52 pm

Clearly wrong. ?? ??? ?? ????????? ??? ? ?? ???? ??? ???? ? ???????? ? ???????? ??? ? ???? ?????????? ??? ?????? ??????? ??? ???? ?

I want to post or [tab]
guest
You may want to rate the tab now too:
select rating
Please do not post tabs as comments. Select "correction" instead!