Oops, an error
Loading. Please wait.

No More Tab

version 1
version 1

Whole song

Interactive

15,704 views 6 this week
1 commentread comment
1 2 3 4 5
x 4
add to favorites
launch autoscroll
font size
0
reset
how to read this tab
guitar tuner
Autoscroll
slow
fast
+/-
esc
set tempo
stop
Help us to improve Ultimate-Guitar.com Take our survey!
×
Author
-------------------------------------------------------------------------------
                          NO MORE: Three Days Grace
-------------------------------------------------------------------------------
Tabbed by: TheThirdDay
Email: TheThirdDaySH@gmail.com

One of my favorite songs on the album. The rhythm guitar is basically five
different power chords:
e|---------------------|
b|---------------------|
g|---------------------|
d|-0---2---4---7---9---|
a|-0---2---4---7---9---|
d|-0---2---4---7---9---|
   D   E   F#  A   B
while lead is much more complex. Rhythm is about as easy as you get on the
album. (b ^_^)b

Lyrics straight from the CD booklet.

---

(UPDATE 10/13/2009: Intro/verse/pre-vere riff added. Thanks to
carlwolteriii@hotmail.com for the great tab!)

---

RHYTHM GUITAR:

Intro:

The rhythm guitar is absent from this section, but if you just want to
play something, I suggest playing the B and then the D for two measures
each until the verse

Verse:

B                      D
Give me a reason to stay here
       B                   D
'Cause I don't wanna live in fear



Pre-chorus:

F#
I can't stop the rain
A   E
But I can stop the tears
A   F#
Oh, I can fight the fire
A   E
But I can't fight the fear



Chorus:
A  D   
No more
  F#                    A  D
I just can't live here (No more)
        A                       A  E
I can't take it, can't take it (No more)
                 A D
What do we stand for

When we all live in fear



Pre-Verse:

F# D



Bridge (Solo):

F# A E A (repeat until chorus)



LEAD GUITAR:

Intro (Thanks carlwolteriii@hotmail.com for tabbing this. All credit to him!):

e|---------------9-----9-----------------------9---------------9--|
b|-----12----12------------------------12----12--------12----12---|
g|---11----11--11--------------------11----11--------11----11-----|
d|----------------------------------------------------------------|
a|----------------------------------------------------------------|
d|-9-----9-------------------------9-----9---------9-----9--------|
   1   &   2   &   3   &   4   &   1   &   2   &   3   &   4   &   

e|---------------0-----0-----------------------0---------------0--|
b|-----10----10------------------------10----10--------10----10---|
g|---11----11--11--------------------11----11--------11----11-----| (Repeat as
d|----------------------------------------------------------------| many times
a|----------------------------------------------------------------|     as
d|-0-----0-------------------------0-----0---------0-----0--------| necessary)
   1   &   2   &   3   &   4   &   1   &   2   &   3   &   4   &   


Verse:

(same riff as the intro)



Pre-chorus:

e|----------------------------------------------------------------|
b|----------------------------------------------------------------|
g|-14--------------13--------------13b14r13b14-----13-------------|
d|----------------------------------------------------------------|
a|----------------------------------------------------------------|
d|----------------------------------------------------------------| x4
   1   &   2   &   3   &   4   &   1   &   2   &   3   &   4   &   



Chorus (Not 100% sure about this):

e|---------------------------------|
b|---------------------------------|
g|-14----14----14--13----13----13--|
d|---------------------------------|
a|---------------------------------|
d|---------------------------------| (repeat throughout chorus.)
   1   &   2   &   3   &   4   &


Pre-verse:

(same riff as the intro)


Bridge (Solo):


e|----------------------------------------|
b|----------------------------------------|
g|-14-13b14-13-14-13b14-13-14-15b16-15b16-|
d|----------------------------------------|
a|----------------------------------------|
d|----------------------------------------| x3

e|----------------------------------------|
b|----------------------------16b17-------|
g|-13b14-13-14-13b14-13-14----------------|
d|----------------------------------------|
a|----------------------------------------|
d|----------------------------------------| x1
Suggest correction
comments
print report bad tab
1 comment total.
0 reply
xBillie 20 Sep 29, 2014 06:51 PM

Lack of formatting. Tab incomplete. Clearly wrong. . . . . . . . . . . . . . . . . . . . . . . . . . . . . .

guest
You may want to rate the tab now too:
select rating
Wanna post a correction for this tab? Suggest correction