Oops, an error
Loading. Please wait.

No More Tab

version 2
version 2

Whole song

Interactive

14,702 views 24 this week
4 commentsread comments
1 2 3 4 5
accurate
x 12
add to favorites
launch autoscroll
font size
0
reset
how to read this tab
guitar tuner
Autoscroll
slow
fast
+/-
esc
set tempo
stop
Help us to improve Ultimate-Guitar.com Take our survey!
×
Author
Difficulty
Tuning
intermediate
D A D G B E
----------------------------------------------------------------------------
                           No More - Three Days Grace
----------------------------------------------------------------------------
Tabbed by: Zach101

CHORUS/PRE-CHORUS LEAD GUITAR COMING SOON!!!


Tuning: Dropped D


Intro - Lead Guitar (0:00 - 0:19)

e|---------9------------9--------9---------0-----------0--------0-|
b|-----12-----------12-------12--------10----------10-------10----|
g|---11--11-------11--11---11--11----11--11------11--11---11--11--|
d|----------------------------------------------------------------|
a|----------------------------------------------------------------|
d|-9------------9---------9--------0------------0--------0--------|

e|---------9------------9--------9---------0-----------0--------0-|
b|-----12-----------12-------12--------10----------10-------10----|
g|---11--11-------11--11---11--11----11--11------11--11---11--11--|
d|----------------------------------------------------------------|
a|----------------------------------------------------------------|
d|-9------------9---------9--------0------------0--------0--------|

(Drums/Bass Enter) (0:19 - 0:29)

e|---------9------------9--------9---------0-----------0--------0-|
b|-----12-----------12-------12--------10----------10-------10----|
g|---11--11-------11--11---11--11----11--11------11--11---11--11--|
d|----------------------------------------------------------------|
a|----------------------------------------------------------------|
d|-9------------9---------9--------0------------0--------0--------|
   

Verse 1 (0:29 - 0:48) 

Lead Guitar
e|---------9------------9--------9---------0-----------0--------0-|
b|-----12-----------12-------12--------10----------10-------10----|
g|---11--11-------11--11---11--11----11--11------11--11---11--11--|
d|----------------------------------------------------------------|
a|----------------------------------------------------------------|
d|-9------------9---------9--------0------------0--------0--------|

Rythym Guitar 
e|----------------------------------------------------------------|
B|----------------------------------------------------------------|
G|----------------------------------------------------------------|
D|--9------------------------------0------------------------------|
A|--9------------------------------0------------------------------|
E|--9------------------------------0------------------------------|
    Give  me  reason  to  stay  here   

Lead Guitar
e|---------9------------9--------9---------0-----------0--------0-|
b|-----12-----------12-------12--------10----------10-------10----|
g|---11--11-------11--11---11--11----11--11------11--11---11--11--|
d|----------------------------------------------------------------|
a|----------------------------------------------------------------|
d|-9------------9---------9--------0------------0--------0--------|

Rythym Guitar
e|----------------------------------------------------------------|
B|----------------------------------------------------------------|
G|----------------------------------------------------------------|
D|--9------------------------------0------------------------------|
A|--9------------------------------0------------------------------|
E|--9------------------------------0------------------------------|
  Cuz  I  don't  wanna  live  in  fear       (Don't wanna live in)


Pre-Chorus (0:48 - 1:07)

Lead Guitar (Coming Soon!)
e|-------------------------------------------------------------------------|
B|-------------------------------------------------------------------------|
G|-------------------------------------------------------------------------|
D|-------------------------------------------------------------------------|
A|-------------------------------------------------------------------------|
E|-------------------------------------------------------------------------|

Rythym Guitar
e|-------------------------------------------------------------------------|
B|-------------------------------------------------------------------------|
G|-------------------------------------------------------------------------|
D|--4---------------------------7---2--------------------------------------|
A|--4---------------------------7---2--------------------------------------|
E|--4---------------------------7---2--------------------------------------|
    I can't stop the rain       But I can stop the tears 


Rythym Guitar
e|-------------------------------------------------------------------------|
B|-------------------------------------------------------------------------|
G|-------------------------------------------------------------------------|
D|--7---4-----------------------7---2--------------------------------------|
A|--7---4-----------------------7---2--------------------------------------|
E|--7---4-----------------------7---2--------------------------------------|
    Oh, I can fight the fire    But I can't fight the fear


Chorus (1:07 - 1:27)

Lead Guitar (Coming Soon!)
e|-------------------------------------------------------------------------|
B|-------------------------------------------------------------------------|
G|-------------------------------------------------------------------------|
D|-------------------------------------------------------------------------|
A|-------------------------------------------------------------------------|
E|-------------------------------------------------------------------------|

Rhythym Guitar
e|-------------------------------------------------------------------------|
B|-------------------------------------------------------------------------|
G|-------------------------------------------------------------------------|
D|7--0-------4---------------7--0-----------7-----------------------7--0---|
A|7--0-------4---------------7--0-----------7-----------------------7--0---|
E|7--0-------4---------------7--0-----------7-----------------------7--0---|
  No more! I just can't live no more! Can't take it, can't take it, no more!

Rhythym Guitar
e|---------------------------------------------|
B|---------------------------------------------|   Continues right into next
G|---------------------------------------------|   segment
D|----------------7-0--------------------------|
A|----------------7-0--------------------------|
E|----------------7-0--------------------------|
 What do we stand for, when we all live in fear

Pre-Verse (1:27 - 1:37)

Lead Guitar
e|-----------------------------0-----------0--------0-|
b|-------------------------10----------10-------10----|
g|-----------------------11--11------11--11---11--11--|
d|----------------------------------------------------|
a|----------------------------------------------------|
d|---------------------0------------0--------0--------|

Rhythym Guitar
e|----------------------------------------------------|
B|----------------------------------------------------|
G|----------------------------------------------------|
D|--4-4-44-4-44-4-444440------------------------------|
A|--4-4-44-4-44-4-444440------------------------------|
E|--4-4-44-4-44-4-444440------------------------------|

Verse 2 (1:37 - 1:56)

Lead Guitar
e|---------9------------9--------9---------0-----------0--------0-|
b|-----12-----------12-------12--------10----------10-------10----|
g|---11--11-------11--11---11--11----11--11------11--11---11--11--|
d|----------------------------------------------------------------|
a|----------------------------------------------------------------|
d|-9------------9---------9--------0------------0--------0--------|

Rythym Guitar
e|----------------------------------------------------------------|
B|----------------------------------------------------------------|
G|----------------------------------------------------------------|
D|--9-----------------------0-------------------------------------|
A|--9-----------------------0-------------------------------------|
E|--9-----------------------0-------------------------------------|
    Give  me  reason  to  believe

Lead Guitar
e|---------9------------9--------9---------0-----------0--------0-|
b|-----12-----------12-------12--------10----------10-------10----|
g|---11--11-------11--11---11--11----11--11------11--11---11--11--|
d|----------------------------------------------------------------|
a|----------------------------------------------------------------|
d|-9------------9---------9--------0------------0--------0--------|

Rythym Guitar
e|----------------------------------------------------------------|
B|----------------------------------------------------------------|
G|----------------------------------------------------------------|
D|--9------------------------------0------------------------------|
A|--9------------------------------0------------------------------|
E|--9------------------------------0------------------------------|
  Cuz  you  don't  wanna  see  me  leave       (Don't wanna see me)

Pre-Chorus (1:56 - 2:15)

Lead Guitar (Coming Soon!)
e|-------------------------------------------------------------------------|
B|-------------------------------------------------------------------------|
G|-------------------------------------------------------------------------|
D|-------------------------------------------------------------------------|
A|-------------------------------------------------------------------------|
E|-------------------------------------------------------------------------|

Rythym Guitar
e|-------------------------------------------------------------------------|
B|-------------------------------------------------------------------------|
G|-------------------------------------------------------------------------|
D|--4---------------------------7---2--------------------------------------|
A|--4---------------------------7---2--------------------------------------|
E|--4---------------------------7---2--------------------------------------|
    I can't stop the rain       But I can stop the tears 


Rythym Guitar
e|-------------------------------------------------------------------------|
B|-------------------------------------------------------------------------|
G|-------------------------------------------------------------------------|
D|--7---4-----------------------7---2--------------------------------------|
A|--7---4-----------------------7---2--------------------------------------|
E|--7---4-----------------------7---2--------------------------------------|
    Oh, I can fight the fire    But I can't fight the fear

Chorus (2:15 - 2:35)

Lead Guitar (Coming Soon!)
e|-------------------------------------------------------------------------|
B|-------------------------------------------------------------------------|
G|-------------------------------------------------------------------------|
D|-------------------------------------------------------------------------|
A|-------------------------------------------------------------------------|
E|-------------------------------------------------------------------------|

Rhythym Guitar
e|-------------------------------------------------------------------------|
B|-------------------------------------------------------------------------|
G|-------------------------------------------------------------------------|
D|7--0-------4---------------7--0-----------7-----------------------7--0---|
A|7--0-------4---------------7--0-----------7-----------------------7--0---|
E|7--0-------4---------------7--0-----------7-----------------------7--0---|
  No more! I just can't live no more! Can't take it, can't take it, no more!

Rhythym Guitar
e|---------------------------------------------|
B|---------------------------------------------|   Continues right into next
G|---------------------------------------------|   segment
D|----------------7-0--------------------------|
A|----------------7-0--------------------------|
E|----------------7-0--------------------------|
 What do we stand for, when we all live in fear

Bridge (2:35 - 2:44)

Rythym Guitar
e|---------------------------------------------|
B|---------------------------------------------|
G|---------------------------------------------|
D|4-4-44-4-44-4-44-447-772-2-22-2-22-2-22-224-|
A|4-4-44-4-44-4-44-447-772-2-22-2-22-2-22-224-|
E|4-4-44-4-44-4-44-447-772-2-22-2-22-2-22-224-|

Solo (2:44 - 3:03)

Lead Guitar
e|----------------------------------------|
b|----------------------------------------|
g|-14-13b14-13-14-13b14-13-14-15b16-15b16-|   x3
d|----------------------------------------|
a|----------------------------------------|
d|----------------------------------------|

Rythym Guitar
e|--------------------------------------------|
B|--------------------------------------------|
G|--------------------------------------------|    x3  (Played under solo)
D|4-4-44-4-44-4-44-447-772-2-22-2-22-2-22-224-|
A|4-4-44-4-44-4-44-447-772-2-22-2-22-2-22-224-|
E|4-4-44-4-44-4-44-447-772-2-22-2-22-2-22-224-|

Lead Guitar
e|----------------------------------------|
b|----------------------------16b17-------|
g|-13b14-13-14-13b14-13-14----------------|    x1
d|----------------------------------------|
a|----------------------------------------|
d|----------------------------------------| 

Rythym Guitar
e|--------------------------------------------|
B|--------------------------------------------|
G|--------------------------------------------|    x1  
D|4-4-44-4-44-4-44-447-772-2-22-2-22-2-22-224-|
A|4-4-44-4-44-4-44-447-772-2-22-2-22-2-22-224-|
E|4-4-44-4-44-4-44-447-772-2-22-2-22-2-22-224-|

Chorus (3:03 - 3:23)

Lead Guitar (Coming Soon!)
e|-------------------------------------------------------------------------|
B|-------------------------------------------------------------------------|
G|-------------------------------------------------------------------------|
D|-------------------------------------------------------------------------|
A|-------------------------------------------------------------------------|
E|-------------------------------------------------------------------------|

Rhythym Guitar
e|-------------------------------------------------------------------------|
B|-------------------------------------------------------------------------|
G|-------------------------------------------------------------------------|
D|7--0-------4---------------7--0-----------7-----------------------7--0---|
A|7--0-------4---------------7--0-----------7-----------------------7--0---|
E|7--0-------4---------------7--0-----------7-----------------------7--0---|
  No more! I just can't live no more! Can't take it, can't take it, no more!

Rhythym Guitar
e|---------------------------------------------|
B|---------------------------------------------|   
G|---------------------------------------------|   
D|----------------7-0--------------------------|
A|----------------7-0--------------------------|
E|----------------7-0--------------------------|
 What do we stand for, when we all live in fear

Outro (3:23 - 3:45)

Lead Guitar
e|---------9------------9--------9---------0-----------0--------0-|
b|-----12-----------12-------12--------10----------10-------10----|
g|---11--11-------11--11---11--11----11--11------11--11---11--11--|
d|----------------------------------------------------------------| Let ring
a|----------------------------------------------------------------|
d|-9------------9---------9--------0------------0--------0--------|


And Thats it!
~ Lead Guitar parts coming soon!




************************************

| /   slide up
| \   slide down
| h   hammer-on
| p   pull-off
| ~   vibrato
| +   harmonic
| x   Mute note
| b   Bend
| pb  Pre-bend
| br  Bend release
| pbr Pre-bend release
| brb Bend release bend

************************************
Suggest correction
What's this?
You can suggest a correction to this tab. Community and Mods will review your correction and vote to approve or reject it.
comments
print report bad tab
4 comments total. Showing first comments.
0 reply
jman_1204 10 wrote on April 29 2011, 07:51 pm

the only problem i saw was during the lead solo, at the end of the phrase its 14b15 (on the g string) then at the end of the last phrase of the solo its 15b16 (on the b string). otherwise awesome tab. looking forward to the lead parts.

0 reply
darkdivide93 24 wrote on July 26 2011, 08:09 pm

just wondering when the lead parts are coming out

0 reply
Boer Goat 1,061 wrote on August 3 2011, 04:24 pm

Good, very good, you know your stuff! I'll be eagarly awaiting the release of the lead tabs!

guest
You may want to rate the tab now too:
select rating
Please do not post tabs as comments. Select "correction" instead!