Oops, an error
Loading. Please wait.

Now Or Never Bass Tab

version 1
version 1

Whole song

Interactive

2,770 views 1 this week
1 commentread comment
1 2 3 4 5
excellent!
x 8
add to favorites
launch autoscroll
font size
0
reset
guitar tuner
Autoscroll
slow
fast
+/-
esc
set tempo
stop
Help us to improve Ultimate-Guitar.com Take our survey!
×
Author
Tuning
D A D G B E
Artist: Three Days Grace
Song: Now Or Never
Album: Three Days Grace

Drop D

Intro:
(There Isn't a bass part in the beginning, but I just play along with the words)
g|----------------------------------------------------------------------|
d|----------------------------------------------------------------------|
a|------------9-----10-9------9---10-9-------9----10-9---7--4--9-7-5-4--|
D|--------9-9-----9-------9-9----9-------9-9----9-----------------------|

Intro (cont.)
g|----------------------------------------------------------------------|
d|----------------------------------------------------------------------|
a|----------------------------------------------------------------------|
D|-9-9--0---2-2--5-5--9-9--0---2-2--5-5--9-9--0---2-2--5-5--4-4-4-4--7--|

Verse:
g|----------------------------------------------------------------------|
d|----------------------------------------------------------------------|
a|----------------------------------------------------------------------|
D|--5--------0-------2--------4----------5-------0------2-------4-------|

Chorus
Play x 2   (when its played the second time, play the 7th fret only once, and let it 
out for the ending of the chorus)
g|--------------------------------------------------------------------------|
d|--------------------------------------------------------------------------|
a|--------------------------------------------------------------------------|
D|-9-9--0---2-2--5-5--9-9--0---2-2--5-5--9-9--0---2-2--5-5--4-4-4-4--7x7x7x7|


Verse

Chorus


Bridge
g|----------------------------------------------------------------------|
d|----------------------------------------------------------------------|
a|------------9-----10-9------9---10-9-------9----10-9---7--4-----------|
D|--------9-9-----9-------9-9----9-------9-9----9-----------------------|


Chorus
Play x3
(dont let 7th fret ring out, each time you play it, play it the 4 times)

g|--------------------------------------------------------------------------|
d|--------------------------------------------------------------------------|
a|--------------------------------------------------------------------------|
D|-9-9--0---2-2--5-5--9-9--0---2-2--5-5--9-9--0---2-2--5-5--4-4-4-4--7x7x7x7|
Suggest correction
comments
print report bad tab
1 comment total.
0 reply
JabyMason 52 wrote on July 18 2009, 02:50 pm

I played it and found it perfect... 5 stars

guest
You may want to rate the tab now too:
select rating
Wanna post a correction for this tab? Suggest correction