Oops, an error
Loading. Please wait.

Now Or Never Bass Tab

version 2
version 2

Whole song

Interactive

591 views 1 this week
no commentswrite comment
1 2 3 4 5
please rate
add to favorites
launch autoscroll
font size
0
reset
guitar tuner
Autoscroll
slow
fast
+/-
esc
set tempo
stop
Help us to improve Ultimate-Guitar.com Take our survey!
×
G--------------------------------------------------------------|
D--------------------------------------------------------------|
A-2-2-------------2-2-------------2-2--------------------------|
E--------00-03-----------00-03-----------00-03-----2-2-2-2-5---|
B-----3---------------3---------------3------------------------|


G--------------------------------------------------------------|
D--------------------------------------------------------------| 
A--------------------------------------------------------------| 
E-33--------------00------55------33--------------00------5----| 
B---------33------------------------------33-------------------|


G--------------------------------------------------------------|
D--------------------------------------------------------------|
A-2-2------------2-2------------2-2----------------------------|
E--------00-03----------00-03----------00-03----2-2-2-2-55-5-5-|
B-----3--------------3--------------3--------------------------|


G--------------------------------------------------------------|
D--------------------------------------------------------------|
A--2-2-------------2-2-------------2-2-------------------------|
E-5------00-03-----------00-03-----------00-03-----2-2-2-2-5---|
B-----3---------------3---------------3------------------------|


G--------------------------------------------------------------|
D--------------------------------------------------------------| 
A--------------------------------------------------------------| 
E-33--------------00------55------33--------------00------5----| 
B---------33------------------------------33-------------------|


G--------------------------------------------------------------|
D--------------------------------------------------------------|
A-2-2------------2-2------------2-2----------------------------|
E--------00-03----------00-03----------00-03----2-2-2-2-55-5-5-|
B-----3--------------3--------------3--------------------------|


G--------------------------------------------------------------|
D--------------------------------------------------------------|
A--2-2-------------2-2-------------2-2-------------------------|
E-5------00-03-----------00-03-----------00-03-----2-2-2-2-5---|
B-----3---------------3---------------3------------------------|


Wait for 23 counts then

G--------------------------------------------------------------|
D--------------------------------------------------------------|
A-2-2------------2-2------------2-2----------------------------|
E--------00-03----------00-03----------00-03----2-2-2-2-55-5-5-|
B-----3--------------3--------------3--------------------------|

G--------------------------------------------------------------|
D--------------------------------------------------------------|
A--2-2------------2-2------------2-2---------------------------|
E-5------00-03----------00-03----------00-03----2-2-2-2-55-5-5-|
B-----3--------------3--------------3--------------------------|


G--------------------------------------------------------------|
D--------------------------------------------------------------|
A--2-2------------2-2------------2-2---------------------------|
E-5------00-03----------00-03----------00-03----2-2-2-2-55-5-5-|
B-----3--------------3--------------3--------------------------|

Suggest correction
Give kudos to tab author, rate the tab!
1 2 3 4 5
comments
print report bad tab
guest
You may want to rate the tab now too:
select rating
Wanna post a correction for this tab? Suggest correction