Oops, an error
Loading. Please wait.

On My Own Bass Tab

version 1
version 1

Whole song

Interactive

4,140 views 1 this week
1 commentread comment
1 2 3 4 5
please rate
add to favorites
launch autoscroll
font size
0
reset
guitar tuner
Tab Pro tools
  • play this tab
  • loop segment
  • change instrument
  • show fretboard
  • metronome
×
Best way to learn
"On My Own"
Autoscroll
slow
fast
+/-
esc
set tempo
stop
Contributor
Difficulty
intermediate
Three Days Grace - On my own
Album: One X

bass tab

by : doky 2007
taquilleros_de_sudamerica_maroyu_el_grupo_tropical_del_momento@hotmail.com

5-stringed bass
G D A E B

   VERSO
G-|-----------|-----------------|-----------------|
D-|-----------|-----------------|-----------------|
A-|-----1-3-7-|-------------7h9-|-------------5h7-|
E-|---3-------|-------5-7-8-----|-------5-7-8-----|
B-|-1---------|-55-55-----------|-55-55-----------|
                                                                              

G-|-----------------|---------------------|
D-|-----------------|---------------------|
A-|-----------3-5/7-|---------------------|
E-|-------3-5-------|----------000-33-5h7-|
B-|-33-33-----------|-11--1111------------|
                                                                              

   PRE-CORO
G-|-----------------|------|
D-|-----------------|------|
A-|-----------------|------|
E-|------00-33-77h8-|------|
B-|-33--------------|-1----|
                                                                              

   CORO
G-|-------------------------------|
D-|-------------------------------|
A-|-------------------------------|
E-|-----------------------/5-5555-|
B-|-5-5-513/8-8-8-1-1-101---------|
                                                                              

   MIDDLE
G-|-------------|-----------------|----------------|------|-------------|
D-|-------------|-----------------|----------------|------|-------------|
A-|-------------|-----------------|----------------|------|-------------|
E-|-55-33-22-00-|-----55-33-22-00-|----55-33-22-00-|------|-5---55555555|
B-|-------------|-333-------------|-11-------------|-1----|-------------|
                                                                              
   FIN
G-|-------------------|
D-|-------------------|
A-|-------------------|
E-|-55-33-22-0--------|
B-|------------1------|

Mando saludos a la banda a la que pertenezco: Ahead. por el unico ensayo que tuvimos con un
baterista despues de tanta busqueda pero despues nada.
Andy: guitarra y voz
Ranas: guitarra y gritos
un cuate que no me recuerdo su nombre: que tocaba el bajo
yo tocaba la bata por eso fue uno de los pocos y ultimos ensayos que tuvimos con batero.

doky2007
comments
We did not receive enough feedback on this tab! Please rate:
print report bad tab
1 2 3 4 5
1 comment total.
+1 reply
bassfinger wrote on March 25 2008, 12:38 pm

PUT THE DAMN THING IN ENGLISH I CAN'T READ FRIGGIN SPANISH

I want to post or [tab]
guest
You may want to rate the tab now too:
select rating
Please do not post tabs as comments. Select "correction" instead!