Oops, an error
Loading. Please wait.

On My Own Tab

version 1
version 1

Whole song

Interactive

64,822 views 117 this week
13 commentsread comments
1 2 3 4 5
excellent!
x 23
add to favorites
launch autoscroll
font size
0
reset
how to read this tab
guitar tuner
Tab Pro tools
  • play this tab
  • loop segment
  • change instrument
  • show fretboard
  • metronome
×
Best way to learn
"On My Own"
Autoscroll
slow
fast
+/-
esc
set tempo
stop
Contributor
Difficulty
Tuning
novice
C G C F A D
Artist: Three Days Grace
Song: On My Own
Album: OneX
Tuning: Dropped C
Tabber: Alex Pavlov (alex-pavlov@hotmail.com)

Intro/Verses
|------------------------|  |-------------------------|   ---
|------------------------|  |-------------------------|      |
|------------------------|  |-------------------------|      |
|---------6-----6--4--7--|or|-------0-6----6--4--7----| (x2) |
|-----4-5-------4--4--4--|  |---0-4--------4--4--4----|      |
|-4-7-------4------------|  |-4---------4-------------|      |
                                                             |-----(x2)
|-----------------------------------------------------|      |
|-----------------------------------------------------|      |
|-----------------------------------------------------|      |
|---------6\-----6--4--2--------------------4--2--0---|      |
|-----4-5--------2--2--2-----------0-2-4----0--0--0---|      |
|-4-7--------2-----------------2-4-------0------------|   ---

Pre-Chorus
|-----------------------|    |------------------------|
|-----------------------|    |------------------------|
|-----------------------|    |------------------------|
|-4-4-7-7-11-11h12-0----|(x2)|-4-4-7-7-11-11h12-2-----|
|-4-4-7-7-11-11h12-0----|    |-4-4-7-7-11-11h12-2-----|
|-4-4-7-7-11-11h12-0----|    |-4-4-7-7-11-11h12-2-----|

|-----------------------|
|-----------------------|
|-----------------------|
|-4-4-7-7-11-11h12-0----|
|-4-4-7-7-11-11h12-0----|
|-4-4-7-7-11-11h12-0----|

Chorus
|------------------------------------------------------|
|------------------------------------------------------|
|----------------------13-----13-----------------------|
|-4--4--4-2-4-7-----0--x---0--x--9--11-11-11-11-9-9-9--| (x2)
|-4--4--4-2-4-7-----0--11--0--11-9--9--9--9--9--9-9-12-|
|-4--4--4-2-4-7-----0------0-----9--9--9--9--9--9-9-9--|

Verse

Chorus

Bridge

(from chorus)
|---------------------|---|
|---------------------|   |
|---------------------|   |
|--9-9-7-7-6-6/4--2~--|   |
|--x-x-x-x-x-x-x--2~--|   |
|--9-9-7-7-6-6/4--2~--|   |
                          |---(x2)
|---------------------|   |
|---------------------|   |
|---------------------|   |
|--9-9-7-7-6-6-4--0~--|   |
|--x-x-x-x-x-x-x--0~--|   |
|--9-9-7-7-6-6-4--0~--|---|

Chorus

End on
|---------------------|
|---------------------|   
|---------------------|   
|--9-9-7-7-6-6/4--2~--|   
|--x-x-x-x-x-x-x--2~--|   
|--9-9-7-7-6-6/4--2~--| 




comments
print report bad tab
13 comments total. Showing first comments.
+2 reply
FnSOB wrote on June 13 2006, 04:09 pm

looks ****in dead on way to go!

another awesome tab

+1 reply
jaames wrote on June 13 2006, 04:15 pm

Awesome tab dude ,5 stars, better then my version(its not on here yet) but you got alot of things I missed, well done.

+1 reply
RS-GUITARIST wrote on July 27 2006, 12:43 pm

|-----------------------|
|-----------------------|
|-----------------------|
|-4-4-7-7-11-11h12-12~--|
|-4-4-7-7-11-11h12-12~--|
|-4-4-7-7-11-11h12-12~--|

i think this is the part right before the chorus

I want to post or [tab]
guest
You may want to rate the tab now too:
select rating
Please do not post tabs as comments. Select "correction" instead!