Oops, an error
Loading. Please wait.

On My Own Bass Tab

version 2
version 2

Whole song

Interactive

1,838 views 4 this week
2 commentsread comments
1 2 3 4 5
please rate
add to favorites
launch autoscroll
font size
0
reset
guitar tuner
Tab Pro tools
  • play this tab
  • loop segment
  • change instrument
  • show fretboard
  • metronome
×
Best way to learn
"On My Own"
Autoscroll
slow
fast
+/-
esc
set tempo
stop
Contributor
Difficulty
intermediate
Tabbed for 5-String

Come In At 0:17

G|-----------|---------------------|---------------------|
D|---------2-|---------------------|---------------------|
A|-----1-3---|-----------------7h9-|-----------------5h7-|
E|---3-------|-----------5-7-8-----|-----------5-7-8-----|
B|-1---------|-5~-5-5~-5-----------|-5~-5-5~-5-----------|
                                    
|---------------------|-----------------------------|
|---------------------|-----------------------------|
|---------------3-5/7-|-----------------------------|
|-----------3-5-------|---------------0-0-3-3-5-5h7-|
|-3~-3-3~-3-----------|-1~-1--1-1-1-1---------------|
                             x2                                           
| |-------------------------| |  |-------------------------|  |-----|
|o|-------------------------|o|  |-------------------------|  |-----|
| |-------------------------| |  |-------------------------|  |-----|
|o|-----------0-0-2-2-7-7h8-|o|  |-----------0-0-2-2-7-7h8-|  |-----|
| |-1~-1-1~-1---------------| |  |-3~-3-3~-3---------------|  |-1~~~|
                                                                 x2
| |-------------------------------------------------------------| |
|o|-------------------------------------------------------------|o|
| |-------------------------------------------------------------| |
|o|---------------------------------------------5-5-5-5-5-5-5-5-|o|
| |-5--5--5-1-3--8-8-8-8-8-8-8-8-8--1--3--1--3------------------| |

|-----------|---------------------|---------------------|
|---------2-|---------------------|---------------------|
|-----1-3---|-----------------7h9-|-----------------5h7-|
|---3-------|-----------5-7-8-----|-----------5-7-8-----|
|-1---------|-5~-5-5~-5-----------|-5~-5-5~-5-----------|
                                    
|---------------------|-----------------------------|
|---------------------|-----------------------------|
|---------------3-5/7-|-----------------------------|
|-----------3-5-------|---------------0-0-3-3-5-5h7-|
|-3~-3-3~-3-----------|-1~-1--1-1-1-1---------------|
                             x2                                           
| |-------------------------| |  |-------------------------|  |-----|
|o|-------------------------|o|  |-------------------------|  |-----|
| |-------------------------| |  |-------------------------|  |-----|
|o|-----------0-0-2-2-7-7h8-|o|  |-----------0-0-2-2-7-7h8-|  |-----|
| |-1~-1-1~-1---------------| |  |-3~-3-3~-3---------------|  |-1~~~|
                                                                 x2
| |-------------------------------------------------------------| |
|o|-------------------------------------------------------------|o|
| |-------------------------------------------------------------| |
|o|---------------------------------------------5-5-5-5-5-5-5-5-|o|
| |-5--5--5-1-3--8-8-8-8-8-8-8-8-8--1--3--1--3------------------| |

|-------------------------------------------------------------|
|-------------------------------------------------------------|
|-------------------------------------------------------------|
|---------------------------------------------5-5-3-3-2-2-0~~-|
|-5--5--5-1-3--8-8-8-8-8-8-8-8-8--1--3--1--3------------------|
                               1._________________________ x2   2._____
| |---------------------------|---------------------------| |  |------|
|o|---------------------------|---------------------------|o|  |------|
| |---------------------------|---------------------------| |  |------|
|o|-----------5-5-3-3-2-2-0~~-|-----------5-5-3-3-2-2-0~~-|o|  |------|
| |-3~-3-3~-3-----------------|-1~-1-1~-1-----------------| |  |-1~~~~|

Short Pause

|-----------------|
|-----------------|
|-----------------|
|-5-5-5-5-5-5-5-5-|
|-----------------|
                                                                 x2
| |-------------------------------------------------------------| |
|o|-------------------------------------------------------------|o|
| |-------------------------------------------------------------| |
|o|---------------------------------------------5-5-5-5-5-5-5-5-|o|
| |-5--5--5-1-3--8-8-8-8-8-8-8-8-8--1--3--1--3------------------| |

|-------------------------------------------------------------|------|
|-------------------------------------------------------------|------|
|-------------------------------------------------------------|------|
|---------------------------------------------5-5-3-3-2-2-0~~-|------|
|-5--5--5-1-3--8-8-8-8-8-8-8-8-8--1--3--1--3------------------|-1~~~~|
comments
We did not receive enough feedback on this tab! Please rate:
print report bad tab
1 2 3 4 5
2 comments total.
0 reply
MrMetalb0y wrote on July 16 2014, 05:15 pm

didn't like this contribution

0 reply
MrMetalb0y wrote on July 16 2014, 05:15 pm

Lack of formatting.

I want to post or [tab]
guest
You may want to rate the tab now too:
select rating
Please do not post tabs as comments. Select "correction" instead!