Oops, an error
Loading. Please wait.

On My Own Tab

version 2
version 2

Whole song

Interactive

33,620 views 45 this week
3 commentsread comments
1 2 3 4 5
x 3
add to favorites
launch autoscroll
font size
0
reset
how to read this tab
guitar tuner
Autoscroll
slow
fast
+/-
esc
set tempo
stop
Help us to improve Ultimate-Guitar.com Take our survey!
×
Author
Tuning
C G C F A D
Artist : Three Days Grace
Song   : On My Own
Album  : One-X
Tuning : Drop C

Tabbed by jaames

Intro/verse (x2)
D|------------------------------------------------------|
A|------------------------------------------------------|
F|------------------------------------------------------|
C|-------------6-----6--4--7--------------6-----6--4--7-|
G|-------4--5--------4--4--4--------4--5--------4--4--4-|
C|-4--7-----------4-----------4--7-----------4----------|

D|-------------------------------------------------------|
A|-------------------------------------------------------|
F|-------------------------------------------------------|
C|-------------6-----6--4--2--------------------4--2--0--|
G|-------4--5--------2--2--2--------0--2--4-----0--0--0--|
C|-4--7-----------2-----------2--4-----------0-----------|


Pre-chorus (x2)
D|--------------------------|----------------------------------------------------|(x1)
A|--------------------------|----------------------------------------------------|
F|--------------------------|----------------------------------------------------|
C|-4-4---7-7---11-11-12-0~--|-4-4---7-7---11-11-12-2~---4-4---7-7---11-11-12-0~--|
G|-4-4---7-7---11-11-12-0~--|-4-4---7-7---11-11-12-2~---4-4---7-7---11-11-12-0~--|
C|-4-4---7-7---11-11-12-0~--|-4-4---7-7---11-11-12-2~---4-4---7-7---11-11-12-0~--|


Chorus (x2)                                                   
D|-----------------------------------------------------------------|
A|-----------------------------------------------------------------|
F|-----------------------------------13-----13---------------------|
C|-4-4-4--2--4--7--7-7-7-7-7-7-7--0---x--0---x--11-11111111111111--|
G|-4-4-4--2--4--7--7-7-7-7-7-7-7--0--11--0--11---9--9-9-9-9-9-9-9--|
C|-4-4-4--2--4--7--7-7-7-7-7-7-7--0------0-------9--9-9-9-9-9-9-9--|

Repeat Intro/verse, Pre-chorus, and Chorus

Bridge (x2)
D|-------------------------------------------------|
A|-------------------------------------------------|
F|-------------------------------------------------|
C|----------------------2-----------------------0--|
G|-2--2--0--0-----------2--2--2--0--0-----------0--|
C|-------------6--6--4--2--------------6--6--4--0--|

End with the chorus.

And there you go, another great song from One-X.
Suggest correction
Give kudos to tab author, rate the tab!
1 2 3 4 5
comments
print report bad tab
3 comments total.
0 reply
gigson111 143 Jul 07, 2006 12:01 PM

awesome tab man..another one

0 reply
wtflolbbq 345 Jan 21, 2009 09:29 PM

yeah, better than version one. butttt outro? 5* regardless :]

0 reply
wtflolbbq 345 Jan 22, 2009 06:26 PM

lol im think im retarded. haha :P disregard that ^^^

guest
You may want to rate the tab now too:
select rating
Wanna post a correction for this tab? Suggest correction