Oops, an error
Loading. Please wait.

On My Own Tab

version 3
version 3

Whole song

Interactive

4,679 views 3 this week
no commentswrite comment
1 2 3 4 5
please rate
add to favorites
launch autoscroll
font size
0
reset
how to read this tab
guitar tuner
Autoscroll
slow
fast
+/-
esc
set tempo
stop
Help us to improve Ultimate-Guitar.com Take our survey!
×
Author
Title: On My Own
Artist: Three Days Grace

Tuning: CGCFAD
Key: 	x = muted note
	\ = slide down
	h = hammer on
	~ = let ring


Intro (clean) x2
|-------------------------------------------------|  
|-------------------------------------------------|  
|-------------------------------------------------|  
|----------6-----6--4--7-----------6-----6--4--7--|
|------4-5-------4--4--4-------4-5-------4--4--4--|  
|--4-7-------4-------------4-7-------4------------|

|--------------------------------------------------|
|--------------------------------------------------|
|-----------------1--------------------------------|
|----------6\-----x--4--2-----------------4--2--0--|
|------4-5--------2--2--2-------0-2-4-----0--0--0--|
|--4-7--------2-------------2-4-------0------------|


Pre-Chorus (distortion)
|-----------------------|    
|-----------------------|    
|-----------------------|    
|--4-4-7-7-11-11h12-0~--| x2
|--4-4-7-7-11-11h12-0~--|    
|--4-4-7-7-11-11h12-0~--|    

|-----------------------|
|-----------------------|
|-----------------------|
|--4-4-7-7-11-11h12-2~--|
|--4-4-7-7-11-11h12-2~--|
|--4-4-7-7-11-11h12-2~--|

|-----------------------|    
|-----------------------|    
|-----------------------|    
|--4-4-7-7-11-11h12-0~--|
|--4-4-7-7-11-11h12-0~--|    
|--4-4-7-7-11-11h12-0~--|    


Chorus (distortion)
|-----------------------------------------------------------------------|
|-----------------------------------------------------------------------|
|-------------------------------------13-----13-------------------------|
|--4--4--4-2-4-7--7-7-7-7-7-7-7----0--x---0--x--9--11-11-11-11-9-9--9---| 
|--4--4--4-2-4-7--7-7-7-7-7-7-7----0--11--0--11-9--9--9--9--9--9-12-11--|
|--4--4--4-2-4-7--7-7-7-7-7-7-7----0------0-----9--9--9--9--9--9-9--9---|

|---------------------------------------------------|
|---------------------------------------------------|
|-------------------------------------13-----13-----|
|--4--4--4-2-4-7--7-7-7-7-7-7-7----0--x---0--x--9~--| 
|--4--4--4-2-4-7--7-7-7-7-7-7-7----0--11--0--11-9~--|
|--4--4--4-2-4-7--7-7-7-7-7-7-7----0------0-----9~--|


Verse (clean) x2
|-------------------------------------------------|  
|-------------------------------------------------|  
|-------------------------------------------------|  
|----------6-----6--4--7-----------6-----6--4--7--|
|------4-5-------4--4--4-------4-5-------4--4--4--|  
|--4-7-------4-------------4-7-------4------------|

|--------------------------------------------------|
|--------------------------------------------------|
|-----------------1--------------------------------|
|----------6\-----x--4--2-----------------4--2--0--|
|------4-5--------2--2--2-------0-2-4-----0--0--0--|
|--4-7--------2-------------2-4-------0------------|


Pre-Chorus (distortion)
|-----------------------|    
|-----------------------|    
|-----------------------|    
|--4-4-7-7-11-11h12-0~--| x2
|--4-4-7-7-11-11h12-0~--|    
|--4-4-7-7-11-11h12-0~--|    

|-----------------------|
|-----------------------|
|-----------------------|
|--4-4-7-7-11-11h12-2~--|
|--4-4-7-7-11-11h12-2~--|
|--4-4-7-7-11-11h12-2~--|

|-----------------------|    
|-----------------------|    
|-----------------------|    
|--4-4-7-7-11-11h12-0~--|
|--4-4-7-7-11-11h12-0~--|    
|--4-4-7-7-11-11h12-0~--|    


Chorus Altered (distortion)
|-----------------------------------------------------------------------|
|-----------------------------------------------------------------------|
|-------------------------------------13-----13-------------------------|
|--4--4--4-2-4-7--7-7-7-7-7-7-7----0--x---0--x--9--11-11-11-11-9-9--9---| 
|--4--4--4-2-4-7--7-7-7-7-7-7-7----0--11--0--11-9--9--9--9--9--9-12-11--|
|--4--4--4-2-4-7--7-7-7-7-7-7-7----0------0-----9--9--9--9--9--9-9--9---|

|-----------------------------------------------------------------------|
|-----------------------------------------------------------------------|
|-------------------------------------13-----13-------------------------|
|--4--4--4-2-4-7--7-7-7-7-7-7-7----0--x---0--x--9--11-11-11-11-9-9--9---| 
|--4--4--4-2-4-7--7-7-7-7-7-7-7----0--11--0--11-9--9--9--9--9--9-12-11--|
|--4--4--4-2-4-7--7-7-7-7-7-7-7----0------0-----9--9--9--9--9--9-9--9---|

|--------------------------------------------------|
|--------------------------------------------------|
|-------------------------------------13-----13----|
|--4--4--4-2-4-7--7-7-7-7-7-7-7----0--x---0--x--9--| 
|--4--4--4-2-4-7--7-7-7-7-7-7-7----0--11--0--11-9--|
|--4--4--4-2-4-7--7-7-7-7-7-7-7----0------0-----9--|


Bridge (distortion)
|----------------------------------|
|----------------------------------|
|----------------------------------|
|--9-9-7-7-6-6-4--2---2---2---(2)--|
|--x-x-x-x-x-x-x--2---2---2---(2)--|
|--9-9-7-7-6-6-4--2---2---2---(2)--|
  
|----------------------------------|
|----------------------------------|
|----------------------------------|
|--9-9-7-7-6-6-4--0---0---0---(0)--|
|--x-x-x-x-x-x-x--0---0---0---(0)--|
|--9-9-7-7-6-6-4--0---0---0---(0)--|
           
|----------------------------------|
|----------------------------------|
|----------------------------------|
|--9-9-7-7-6-6-4--2---2---2---(2)--|
|--x-x-x-x-x-x-x--2---2---2---(2)--|
|--9-9-7-7-6-6-4--2---2---2---(2)--|

|---------------------|
|---------------------|
|---------------------|
|--9-9-7-7-6-6-4--0~--|
|--x-x-x-x-x-x-x--0~--|
|--9-9-7-7-6-6-4--0~--|


Chorus Interlude (distortion)
|-----------------------------------------------------------------------|
|-----------------------------------------------------------------------|
|-------------------------------------13-----13-------------------------|
|--4--4--4-2-4-7--7-7-7-7-7-7-7----0--x---0--x--9--11-11-11-11-9-9--9---| 
|--4--4--4-2-4-7--7-7-7-7-7-7-7----0--11--0--11-9--9--9--9--9--9-12-11--|
|--4--4--4-2-4-7--7-7-7-7-7-7-7----0------0-----9--9--9--9--9--9-9--9---|
  |--this part is played behind the last fret--|


Chorus Altered (distortion)
|-----------------------------------------------------------------------|
|-----------------------------------------------------------------------|
|-------------------------------------13-----13-------------------------|
|--4--4--4-2-4-7--7-7-7-7-7-7-7----0--x---0--x--9--11-11-11-11-9-9--9---| 
|--4--4--4-2-4-7--7-7-7-7-7-7-7----0--11--0--11-9--9--9--9--9--9-12-11--|
|--4--4--4-2-4-7--7-7-7-7-7-7-7----0------0-----9--9--9--9--9--9-9--9---|

|-----------------------------------------------------------------------|
|-----------------------------------------------------------------------|
|-------------------------------------13-----13-------------------------|
|--4--4--4-2-4-7--7-7-7-7-7-7-7----0--x---0--x--9--11-11-11-11-9-9--9---| 
|--4--4--4-2-4-7--7-7-7-7-7-7-7----0--11--0--11-9--9--9--9--9--9-12-11--|
|--4--4--4-2-4-7--7-7-7-7-7-7-7----0------0-----9--9--9--9--9--9-9--9---|

|--------------------------------------------------|
|--------------------------------------------------|
|-------------------------------------13-----13----|
|--4--4--4-2-4-7--7-7-7-7-7-7-7----0--x---0--x--9--| 
|--4--4--4-2-4-7--7-7-7-7-7-7-7----0--11--0--11-9--|
|--4--4--4-2-4-7--7-7-7-7-7-7-7----0------0-----9--|


Outro
|---------------------|
|---------------------|
|---------------------|
|--9-9-7-7-6-6-4--0~--|
|--x-x-x-x-x-x-x--0~--|
|--9-9-7-7-6-6-4--0~--|
Suggest correction
What's this?
You can suggest a correction to this tab. Community and Mods will review your correction and vote to approve or reject it.
comments
We did not receive enough feedback on this tab! Please rate:
print report bad tab
1 2 3 4 5
guest
You may want to rate the tab now too:
select rating
Please do not post tabs as comments. Select "correction" instead!