Oops, an error
Loading. Please wait.

One-X Tab

version 1
version 1

Album

Whole song

Interactive

92,634 views 18 this week
28 commentsread comments
1 2 3 4 5
x 68
add to favorites
×
Save as Personal and add changes to this tab that will be seen only by you. Learn more ›
launch autoscroll
font size
0
reset
how to read this tab
guitar tuner
Autoscroll
slow
fast
+/-
esc
set tempo
stop
Author
Difficulty
Tuning
intermediate
C G C F A D
Band- Three Days Grace
Album- One-X (2006)

Track Listings:
1.It's All Over.........jaames
2.Pain..................jaames
3.Animal I Have Become..sicfreak91
4.Never Too Late........jaames
5.On My Own.............apavlov
6.Riot..................jaames
7.Get Out Alive.........jaames
8.Let It Die............jaames
9.Over And Over.........jaames
10.Time Of Dying........jaames
11.Gone Forever.........jaames
12.One-X................jaames

-----------------------------------------------------

1.IT'S ALL OVER

[Intro] (x3)
D|-------------------------------------------|-----------------------------|(x1)
A|-------------------------------------------|-----------------------------|
F|-------------------------------------------|-----------------------------|
C|-0--0--0---7--7--7---3--3--3---2--3--2--3--|-x--5-5-5-5-5-5-5---3~~~~~~~~|
G|-0--0--0---7--7--7---3--3--3---2--3--2--3--|-x--5-5-5-5-5-5-5---3~~~~~~~~|
C|-0--0--0---7--7--7---3--3--3---2--3--2--3--|-x--5-5-5-5-5-5-5---3~~~~~~~~|

[Verse PM] (x3)
D|--------------------------------------|----------------------------------|(x1)
A|--------------------------------------|----------------------------------|
F|--------------------------------------|----------------------------------|
C|--------------------------------------|----------------------------------|
G|-5-5-5-5--0-0-0-0--8-8-8-8--7-8-7-8---|------------------8-8-8-8-8-8-8-8-|
C|--------------------------------------|-5-5-5-5-5-5-5-5------------------|

[Pre-chorus] (x1)
D|------------------------------------|
A|------------------------------------|
F|------------------------------------|
C|-5-5-5-5-5-5-5-5-----8----x-x--10---|
G|-5-5-5-5-5-5-5-5-----8----x-x--10---|
C|-5-5-5-5-5-5-5-5-----8----x-x--10---|

[Chorus] (x2)
D|----------------------------------------------------------------|(x1)
A|----------------------------------------------------------------|
F|----------------------------------------------------------------|
C|---0~------8~-----5-5-5-5-5-5-5----10-10-10-10-10-10-10----3----|
G|---0~------8~-----5-5-5-5-5-5-5----10-10-10-10-10-10-10----3----|
C|---0~------8~-----5-5-5-5-5-5-5----10-10-10-10-10-10-10----3----|

Repeat Verse, Pre-chorus, and Chorus.

[Bridge/Intro] (x3)
D|-----------------------------------------------|----------------------|(x1)
A|-----------------------------------------------|----------------------|
F|-----------------------------------------------|----------------------|
C|-----0--0--0---7--7--7---3--3--3---2--3--2--3--|---5-5-5-5----8-8-8-8-|
G|-3v--0--0--0---7--7--7---3--3--3---2--3--2--3--|---5-5-5-5----8-8-8-8-|
C|-----0--0--0---7--7--7---3--3--3---2--3--2--3--|---5-5-5-5----8-8-8-8-|

[Solo] (x2)
D|----------18-18-17b18r17b18r17------------13-12-------------------------|
A|-15h17h18-----------------------15h17h18--------13-10b11r10b11r10-8-10--|
F|------------------------------------------------------------------------|
C|------------------------------------------------------------------------|
G|------------------------------------------------------------------------|
C|------------------------------------------------------------------------|

                                              chord played after solo
D|-----------------------13-12h13p12-10-8-----|-------0-------|
A|--------------------------------------------|-------6-------|
F|-15-15-14b15r14b15r14-----------------------|-------5-------|
C|--------------------------------------------|-------0-------|
G|--------------------------------------------|-------0-------|
C|--------------------------------------------|---------------|

Repeat chorus, then end with this.
D|-------------------------------------------|(x1)
A|-------------------------------------------|
F|-------------------------------------------|
C|-0--0--0---7--7--7---3--3--3---2--3--2--3--|
G|-0--0--0---7--7--7---3--3--3---2--3--2--3--|
C|-0--0--0---7--7--7---3--3--3---2--3--2--3--|

---------------------------------------------------------------

2.PAIN

Intro/verse (x1)
D|-----0-------0-----0-------0-|-----0-------0-----0--------0---------0--|
A|-------0-------------0-------|-------0-------------0-------------------|
F|---4-------4-----4-------4---|---4-------4-----4--------4-------4------|
C|-2-------1-----0-------------|-2-------1-----0----------------2---2----|
G|-----------------------4-----|------------------------4-----3----------|
C|-----------------------------|-----------------------------------------|

Chorus (x1)
D|------------------------------------------------------|
A|------------------------------------------------------|
F|---------4-5-4-2--------------------4-5-4-2-----------|
C|-2--2----x-x-x-x----5--0----2--2----x-x-x-x----7--0---|
G|-2--2----2-3-2-0----5--0----2--2----2-3-2-0----7--0---|
C|-2--2---------------5--0----2--2---------------7--0---|

D|------------------------------------------------------------|
A|------------------------------------------------------------|
F|---------4-5-4-2----------------------------------11-12-11--|
C|-2--2----x-x-x-x----5--0----12-12-12-12----0--0----x--x--x--|
G|-2--2----2-3-2-0----5--0----10-10-10-10----0--0----9-10--9--|
C|-2--2---------------5--0----10-10-10-10----0--0-------------|

Bridge (x4)
D|---------------------------------------------------|
A|---------------------------------------------------|
F|11--12-11--12-11--12-11--12-11--5-5-5-5--7-7-7-7---|
C|-x---x--x---x--x---x--x---x--x--5-5-5-5--7-7-7-7---|
G|-9--10--9--10--9--10--9--10--9--3-3-3-3--5-5-5-5---|
C|---------------------------------------------------|

Outro (x1)
D|-----------------------------|
A|-----------------------------|
F|11--12-11--12-11--12-11--12--|
C|-x---x--x---x--x---x--x---x--|
G|-9--10--9--10--9--10--9--10--|
C|-----------------------------|

---------------------------------------------------------

3.ANIMAL I HAVE BECOME

Tuning: Drop C

intro: ( bass intro first )

D|---------------------------------------------------------------|
A|---------------------------------------------------------------|
F|---------------------------------------------------------------|
C|---------------------------------------------------------------|
G|-00----------7-------------------------------------------------|
C|-00------7-8---8-7---------------------------------------------|x4

D|---------------------------------------------------------------|
A|---------------------------------------------------------------|
F|---------------------------------------------------------------|
C|-00------------------------------------------------------------|
G|-00----------7-------------------------------------------------|
C|-00------7-8---8-7---------------------------------------------|x3

D|---------------------------------------------------------------|
A|---------------------------------------------------------------|
F|---------------------------------------------------------------|
C|-00------------------------------------------------------------|
G|-00----------7-------------------------------------------------|
C|-00------7-8---8-----------------------------------------------|x1

[Verse]
D|---------------------------------------------------------------|
A|---------------------------------------------------------------|
F|---------------------------------------------------------------|
C|-33-333-333-333------------------------------------------------|
G|-33-333-333-333----------00------7----------00------7----------|
C|-33-333-333-333--5v------00--7-8---8-7------00--7-8---8--------|x3

[Pre-Chorus]
D|---------------------------------------------------------------|
A|---------------------------------------------------------------|
F|---------------------------------------------------------------|
C|--33-333-333-333-3-555-555-5-8~--------------------------------|
G|--33-333-333-333-3-555-555-5-8~--------------------------------|
C|--33-333-333-333-3-555-555-5-8~--------------------------------|x1

[Chorus]
 Guitar 1:
D|---------------------------------------------------------------|
A|--------10's---------------------------------------------------|
F|--------V------------------------------------------------------|
C|-00-10101010-33-7-78--00-10101010-33-55-32---------------------|
G|-00-10101010-33-7-78--00-10101010-33-55-32---------------------|
C|-00-10101010-33-7-78--00-10101010-33-55-32---------------------|x1

D|---------------------------------------------------------------|
A|---------------------------------------------------------------|
F|---------------------------------------------------------------|
C|-00-10101010-33-7-78--00-10101010-33--5-3-2~-------------------|
G|-00-10101010-33-7-78--00-10101010-33--5-3-2~-------------------|
C|-00-10101010-33-7-78--00-10101010-33--5-3-2~-------------------|x1

 Guitar 2:
D|-------12-12-13-13-17~-17-18-------12-12-13-13-15~-13-12-------|
A|-15-15-----------------------15-15-----------------------------|
F|---------------------------------------------------------------|
C|---------------------------------------------------------------|
G|---------------------------------------------------------------|
C|---------------------------------------------------------------|x2

[Re-intro]
D|---------------------------------------------------------------|
A|---------------------------------------------------------------|
F|---------------------------------------------------------------|
C|---------------------------------------------------------------|
G|-00----------7------00----------7------------------------------|
C|-00------7-8---8-7--00------7-8---8----------------------------|x1

[Verse 2]
D|---------------------------------------------------------------|
A|---------------------------------------------------------------|
F|---------------------------------------------------------------|
C|-33-333-333-333------------------------------------------------|
G|-33-333-333-333----------00------7----------00------7----------|
C|-33-333-333-333--5v------00--7-8---8-7------00--7-8---8--------|x3

[Pre-Chorus]
D|---------------------------------------------------------------|
A|---------------------------------------------------------------|
F|---------------------------------------------------------------|
C|--33-333-333-333-3-555-555-5-8~--------------------------------|
G|--33-333-333-333-3-555-555-5-8~--------------------------------|
C|--33-333-333-333-3-555-555-5-8~--------------------------------|x1

[Chorus 2]
 Guitar 1:
D|---------------------------------------------------------------|
A|--------10's---------------------------------------------------|
F|--------V------------------------------------------------------|
C|-00-10101010-33-7-78--00-10101010-33-55-32---------------------|
G|-00-10101010-33-7-78--00-10101010-33-55-32---------------------|
C|-00-10101010-33-7-78--00-10101010-33-55-32---------------------|x2

D|---------------------------------------------------------------|
A|---------------------------------------------------------------|
F|---------------------------------------------------------------|
C|-00-10101010-33-7-78--00-10101010-33--5-3-2-0~-----------------|
G|-00-10101010-33-7-78--00-10101010-33--5-3-2-0~-----------------|
C|-00-10101010-33-7-78--00-10101010-33--5-3-2-0~-----------------|x1

 Guitar 2:
D|-------12-12-13-13-17~-17-18-------12-12-13-13-15~-13-12-------|
A|-15-15-----------------------15-15-----------------------------|
F|---------------------------------------------------------------|
C|---------------------------------------------------------------|
G|---------------------------------------------------------------|
C|---------------------------------------------------------------|x3

[Bridge]
Quick pickslide THEN ...
D|---------------------------------------------------------------|
A|---------------------------------------------------------------|
F|---------------------------------------------------------------|
C|-88-888-555-5----------00-000-333-333-3------------------------|
G|-88-888-555-5----7-----00-000-333-333-3------------------------|
C|-88-888-555-5--8---8-7-00-000-333-333-3------------------------|x2

D|---------------------------------------------------------------|
A|---------------------------------------------------------------|
F|-----------------9---------------------------------------------|
C|-88-888-8--0-7-8---8-7--0~~------------------------------------|
G|-88-888-8---------------0~~------------------------------------|
C|-88-888-8---------------0~~------------------------------------|x1

[Re-intro]
D|---------------------------------------------------------------|
A|---------------------------------------------------------------|
F|---------------------------------------------------------------|
C|---------------------------------------------------------------|
G|-00----------7-------------------------------------------------|
C|-00------7-8---8-7---------------------------------------------|x4

Chorus 3: (TWO riffs of no bass and treble first)

 Guitar 1:
D|---------------------------------------------------------------|
A|--------10's---------------------------------------------------|
F|--------V------------------------------------------------------|
C|-00-10101010-33-7-78--00-10101010-33-55-32---------------------|
G|-00-10101010-33-7-78--00-10101010-33-55-32---------------------|
C|-00-10101010-33-7-78--00-10101010-33-55-32---------------------|x1

D|---------------------------------------------------------------|
A|---------------------------------------------------------------|
F|---------------------------------------------------------------|
C|-00-10101010-33-7-78--00-10101010-33--5-3-2-0~-----------------|
G|-00-10101010-33-7-78--00-10101010-33--5-3-2-0~-----------------|
C|-00-10101010-33-7-78--00-10101010-33--5-3-2-0~-----------------|x1

 Guitar 2:
D|-------12-12-13-13-17~-17-18-------12-12-13-13-15~-13-12-------|
A|-15-15-----------------------15-15-----------------------------|
F|---------------------------------------------------------------|
C|---------------------------------------------------------------|
G|---------------------------------------------------------------|
C|---------------------------------------------------------------|x2

[Outro]
D|---------------------------------------------------------------|
A|---------------------------------------------------------------|
F|---------------------------------------------------------------|
C|-00------------------------------------------------------------|
G|-00----------7-------------------------------------------------|
C|-00------7-8---8-7---------------------------------------------|x6

D|---------------------------------------------------------------|
A|---------------------------------------------------------------|
F|-------9v------------------------------------------------------|
C|-0-7-8----8-7--------------------------------------------------|
G|---------------------------------------------------------------|
C|---------------------------------------------------------------|x4

D|---------------------------------------------------------------|
A|---------------------------------------------------------------|
F|---------------------------------------------------------------|
C|-0~~~~~--------------------------------------------------------|
G|-0~~~~~--------------------------------------------------------|
C|-0~~~~~--------------------------------------------------------|x1

... THEN a long, kinda slow, pickslide to 1st fret

---------------------------------------------------------------------

4.NEVER TOO LATE

[Intro/verse] (acous.) (x3)          Play this 4th time
D|--------------------------------|-------------------|(x1)
A|--------------------------------|-------------------|
F|--------------------------------|-------------------|
C|-------10-----------10--8--7--0-|-------10-----10---|
G|----8------8-----0--------------|----7------7--10---|
C|-8------------0-----------------|-7------------10---|

[Chorus] (dist.) (x1)
D|------------------------------------------------|
A|------------------------------------------------|
F|------------------------------------------------|
C|-0-----8-----7-----10-----0-----8-----7-----10--|
G|-0-----8-----7-----10-----0-----8-----7-----10--|
C|-0-----8-----7-----10-----0-----8-----7-----10--|

D|------------------------------------------------|
A|------------------------------------------------|
F|------------------------------------------------|
C|-0-----8-----7-----10-----8-----0-----7-----10--|
G|-0-----8-----7-----10-----8-----0-----7-----10--|
C|-0-----8-----7-----10-----8-----0-----7-----10--|

Repeat Intro/verse and chorus.

[Bridge] (x3)
D|------------------------------------------------|-----------|(x1)
A|------------------------------------------------|-----------|
F|------------------------------------------------|-----------|
C|-8-8-8-8---8-8-8-8---8-8---3-3-3--10-10-10-10---|-8--7--10--|
G|-8-8-8-8---8-8-8-8---8-8---3-3-3--10-10-10-10---|-8--7--10--|
C|-8-8-8-8---8-8-8-8---8-8---3-3-3--10-10-10-10---|-8--7--10--|

D|---------------------------------------|
A|---------------------------------------|
F|---------------------------------------|
C|-------10-----12--------10----12--10---|
G|----8----------------8------------10---|
C|-8---------0------8--------0------10---|

End with the intro.

---------------------------------------------------------------

5.ON MY OWN

Tuning: Drop C

[Intro/Verses]
D|------------------------|  |-------------------------|   ---
A|------------------------|  |-------------------------|      |
F|------------------------|  |-------------------------|      |
C|---------6-----6--4--7--|or|-------0-6----6--4--7----| (x2) |
G|-----4-5-------4--4--4--|  |---0-4--------4--4--4----|      |
C|-4-7-------4------------|  |-4---------4-------------|      |
                                                              |-----(x2)
D|-----------------------------------------------------|      |
A|-----------------------------------------------------|      |
F|-----------------------------------------------------|      |
C|---------6\-----6--4--2--------------------4--2--0---|      |
G|-----4-5--------2--2--2-----------0-2-4----0--0--0---|      |
C|-4-7--------2-----------------2-4-------0------------|   ---

[Pre-Chorus]
D|-----------------------|    |------------------------|
A|-----------------------|    |------------------------|
F|-----------------------|    |------------------------|
C|-4-4-7-7-11-11h12-0----|(x2)|-4-4-7-7-11-11h12-2-----|
G|-4-4-7-7-11-11h12-0----|    |-4-4-7-7-11-11h12-2-----|
C|-4-4-7-7-11-11h12-0----|    |-4-4-7-7-11-11h12-2-----|

D|-----------------------|
A|-----------------------|
F|-----------------------|
C|-4-4-7-7-11-11h12-0----|
G|-4-4-7-7-11-11h12-0----|
C|-4-4-7-7-11-11h12-0----|

[Chorus]
D|------------------------------------------------------|
A|------------------------------------------------------|
F|----------------------13-----13-----------------------|
C|-4--4--4-2-4-7-----0--x---0--x--9--11-11-11-11-9-9-9--| (x2)
G|-4--4--4-2-4-7-----0--11--0--11-9--9--9--9--9--9-9-12-|
C|-4--4--4-2-4-7-----0------0-----9--9--9--9--9--9-9-9--|

[Verse]

[Chorus]

[Bridge]

(from chorus)
D|---------------------|---|
A|---------------------|   |
F|---------------------|   |
C|--9-9-7-7-6-6/4--2~--|   |
G|--x-x-x-x-x-x-x--2~--|   |
C|--9-9-7-7-6-6/4--2~--|   |
                           |---(x2)
D|---------------------|   |
A|---------------------|   |
F|---------------------|   |
C|--9-9-7-7-6-6-4--0~--|   |
G|--x-x-x-x-x-x-x--0~--|   |
C|--9-9-7-7-6-6-4--0~--|---|

[Chorus]
 End on
D|---------------------|
A|---------------------|   
F|---------------------|   
C|--9-9-7-7-6-6/4--2~--|   
G|--x-x-x-x-x-x-x--2~--|   
C|--9-9-7-7-6-6/4--2~--| 

---------------------------------------------------

6.RIOT

[Intro/verse] Gtr.1 PM (x6)
D|-----------------------------------------------------|
A|-----------------------------------------------------|
F|-----------------------------------------------------|
C|-------------8-7-5-7-5---------------5-7-8-7-5---5-7-|
G|-5-5-5-8-7-5-----------8-----5-5-5-8-----------8-----|
C|-----------------------------------------------------|

D|-------------------------------------------------|
A|-------------------------------------------------|
F|-------------------------------------------------|
C|-------------8-7-5-7-5---------------5-7-8-7-5-7-|
G|-5-5-5-8-7-5-----------8-----5-5-5-8-------------|
C|-------------------------------------------------|

Gtr.2 (comes in 2nd time) (x4)
D|--------------------------------------|
A|--------------------------------------|
F|--------------------------------------|
C|-0~------3~------8~------8~------7~---|
G|-0~------3~------8~------8~------7~---|
C|-0~------3~------8~------8~------7~---|

Chorus (x2)                                                    End chorus w/ this PM
D|----------------------------------------------------------------|-------------|(x2)
A|----------------------------------------------------------------|-------------|
F|----------------------------------------------------------------|-------------|
C|-0--3--0--8-7--0--3--0--8-7---0--3--0--8-7--5--5--5--10--10--12-|-------------|
G|-0--3--0--8-7--0--3--0--8-7---0--3--0--8-7--5--5--5--10--10--12-|-------------|
C|-0--3--0--8-7--0--3--0--8-7---0--3--0--8-7--5--5--5--10--10--12-|-8-7-5-7-5-3-|

Repeat Intro/verse and chorus

[Bridge] PM 
D|--------------------------|(x3)
A|--------------------------|
F|--------------------------|
C|--------------------------|
G|-------------6-5-3-5-1-3--|
C|-5-5-5-8-5-5--------------|

D|--------------------------|(x3)
A|--------------------------|
F|--------------------------|
C|--------------------------|
G|-------------1-0---0------|
C|-0-0-0-3-0-0-----5---3-5--|

[Solo Outro]
D|-10-----------------------|(x1)
A|-----10--10b11r10---------|
F|-------------------10--7--|
C|--------------------------|
G|--------------------------|
C|--------------------------|

------------------------------------------------------

7.GET OUT ALIVE

[Intro/verse] (x6)
D|---------------------------------------------------------------------|
A|---------------------------------------------------------------------|
F|---------------------------------------------------------------------|
C|----0--------0-------0--------0-------0--------0--------0------------|
G|----------5-----5-6--------3-----3-5--------1-----1--3--------0-1-0--|
C|-5-----0----------------0----------------0-----------------0---------|

[Chorus] (x2)
D|----------------------------------------------------------|
A|----------------------------------------------------------|
F|-------0---0--------0---0------------0---0---------0---0--|
C|---------0------------0----------------0-------------0----|
G|---5------------1--------------3--------------5-----------|
C|-5---5--------1---1---------3-----3---------5---5---------|

Repeat Intro/verse and Chorus.

[Bridge] (x2)
D|------------------------------------------------------------------------|
A|------------------------------------------------------------------------|
F|------------------------------------------------------------------------|
C|1010101010101010---0-0-0-0-0-0-0-0---5-5-5-5-5-5-5-5--0-1-1-1-1-1-1-1-1-|
G|-8-8-8-8-8-8-8-8---0-0-0-0-0-0-0-0---5-5-5-5-5-5-5-5--0-1-1-1-1-1-1-1-1-|
C|-8-8-8-8-8-8-8-8---0-0-0-0-0-0-0-0---5-5-5-5-5-5-5-5--0-1-1-1-1-1-1-1-1-|

Play verse again, then this 
[Verse 2] (x2)
D|-------------------------------------------------------|
A|-------------------------------------------------------|
F|-------------------------------------------------------|
C|-8-7-5-5--0-0--13-13--10-10--0-0--8-8--10-10--8-7--5-5-|
G|-8-7-5-5--0-0--13-13--10-10--0-0--8-8--10-10--8-7--5-5-|
C|-8-7-5-5--0-0--13-13--10-10--0-0--8-8--10-10--8-7--5-5-|

Chorus (x6) Gtr.1
D|----------------------------------------------------------|
A|----------------------------------------------------------|
F|-------0---0--------0---0------------0---0---------0---0--|
C|---------0------------0----------------0-------------0----|
G|---5------------1--------------3--------------5-----------|
C|-5---5--------1---1---------3-----3---------5---5---------|

Gtr.2 comes in 4th time and plays this
D|---------------------------------------------------------------------|
A|---------------------------------------------------------------------|
F|---------------------------------------------------------------------|
C|-5-5-5-5-5-5-5-5--1-1-1-1-1-1-1-1--3-3-3-3-3-3-3-3--5-5-5-5-5-5-5-5--|
G|-5-5-5-5-5-5-5-5--1-1-1-1-1-1-1-1--3-3-3-3-3-3-3-3--5-5-5-5-5-5-5-5--|
C|-5-5-5-5-5-5-5-5--1-1-1-1-1-1-1-1--3-3-3-3-3-3-3-3--5-5-5-5-5-5-5-5--|

Repeat Bridge, then the Chorus again.

-----------------------------------------------------------

8.LET IT DIE

[Intro] (x1)
D|------------------------------------------------|
A|------------------------------------------------|
F|------------------------------------------------|
C|-7-7--7-7--10-10--10-10---5-5--5-5---5-5--5-5---|
G|-5-5--5-5---7--7---7--7---3-3--3-3---3-3--3-3---|
C|-5-5--5-5---7--7---7--7---3-3--3-3---3-3--3-3---|

[Verse] (x2)                                               Gtr.2 plays this
D|-----------------------------------------------------|------------------|(x2)
A|-----------------------------------5-----------5-----|------------------|
F|----------7------------9-----------------------------|-/9--7--5--/12--7-|
C|-7--7--7-----10-10-10-----5--5--5-----5--5--5--------|------------------|
G|-5--5--5------7--7--7-----3--3--3-----3--3--3--------|------------------|
C|-5--5--5------7--7--7-----3--3--3-----3--3--3--------|------------------|

[Pre-chorus] PM (x2)
D|--------------------------------------|
A|--------------------------------------|
F|-5-5-5-5-5-5-5-5---5-5-5-5---5-5-5-5--|
C|-2-2-2-2-2-2-2-2---3-3-3-3---5-5-5-5--|
G|--------------------------------------|
C|--------------------------------------|

[Chorus] (x2)
D|----------------------------------------------------------------------|
A|----------------------------------------------------------------------|
F|----------------------------------------------------------------------|
C|-7-7---10-10---0---3-3---10-10---5---7-7---10-10---0---3-3-3-3---5-5--|
G|-7-7---10-10---0---3-3---10-10---5---7-7---10-10---0---3-3-3-3---5-5--|
C|-7-7---10-10---0---3-3---10-10---5---7-7---10-10---0---3-3-3-3---5-5--|

[Bridge] (x2)
D|-------------------------------------|-------------------------------------|(x2)
A|-------------------------------------|-------------------------------------|
F|-------------------------------------|-------------------------------------|
C|-0-0-0-0--2-2-2-2--3-3-3-3--5-5-5-5--|-7-7-7-7--0-0-0-0--3-3-3-3--5-5-5-5--|
G|-0-0-0-0--2-2-2-2--3-3-3-3--5-5-5-5--|-7-7-7-7--0-0-0-0--3-3-3-3--5-5-5-5--|
C|-0-0-0-0--2-2-2-2--3-3-3-3--5-5-5-5--|-7-7-7-7--0-0-0-0--3-3-3-3--5-5-5-5--|

Then this, while the chorus is playing (x2)
D|----------------------------------------|----------------------------------------|
A|----------------------------------------|----------------------------------------|
F|-9--9---12-12---11---5--5---12--12---7--|-9--9---12-12--11---5--5--5---x-x---7-7-|
C|-x--x----x--x----x---x--x----x---x---x--|-x--x----x--x---x---x--x--x---x-x---x-x-|
G|-7--7---10-10----9---3--3---10--10---5--|-7--7---10-10---9---3--3--3---x-x---5-5-|
C|----------------------------------------|----------------------------------------|

[Ending]
D|---------------------|
A|---------------------|
F|-/9--7--5--/12--9----|
C|---------------------|
G|---------------------|
C|---------------------|

-------------------------------------------------------

9.OVER AND OVER

[Intro/verse] (acous.) (x6)
D|-------------------------------------------------------------------|
A|-------------------------------------------------------------------|
F|---------2-0-------------2-0--------------2-0-------------2-0------|
C|-----3-------3-------3-------3--------3-------3-------3-------3----|
G|---3---3-------3---3---3-------3----0---0-------0---0---0-------0--|
C|-3---------------3----------------0---------------0----------------|

[Pre-chorus] (x1)
D|-------------------------------------------------------------|
A|-------------------------------------------------------------|
F|-----------------------------------------------------5~------|
C|-8-8-8-8-8-8-8-8--0-0-0-0-0-0-0-0---3-3-3-3-3-3-3-3--5~--2~--|
G|-8-8-8-8-8-8-8-8--0-0-0-0-0-0-0-0---3-3-3-3-3-3-3-3--3~--2~--|
C|-8-8-8-8-8-8-8-8--0-0-0-0-0-0-0-0---3-3-3-3-3-3-3-3------2~--|

[Chorus] (x1)
D|------------------------------------------------------------|
A|------------------------------------------------------------|
F|------------------------------------5-5-5-------------------|
C|-7-7-7-7-7-7------3-3-3-3-3-3-------5-5-5-------5-5-5-------|
G|-7-7-7-7-7-7------3-3-3-3-3-3-------3-3-3-------5-5-5-------|
C|-7-7-7-7-7-7------3-3-3-3-3-3-------------------5-5-5-------|

D|------------------------------------------------------|
A|------------------------------------------------------|
F|------------------------------------------------------|
C|-7-7-7-7-7-7------3-3-3-3-3-3-------0-0-0-0-----5-2---|
G|-7-7-7-7-7-7------3-3-3-3-3-3-------0-0-0-0-----5-2---|
C|-7-7-7-7-7-7------3-3-3-3-3-3-------0-0-0-0-----5-2---|

[Bridge] (x2)
D|----------------------------------------------------|
A|----------------------------------------------------|
F|11-11-11-11-11-11-11-11---11-11-11-11-11-11-11-11---|
C|11-11-11-11-11-11-11-11---11-11-11-11-11-11-11-11---|
G|-9--9--9--9--9--9--9--9----0--0--0--0--0--0--0--0---|
C|-9--9--9--9--9--9--9--9----0--0--0--0--0--0--0--0---|

                                    2nd time end w/ this chord
D|-----------------------------------------|-------|
A|-----------------------------------------|-------|
F|11-11-11-11-11-11-11-11---11-11-11----9--|---7---|
C|11-11-11-11-11-11-11-11---11-11-11----9--|---7---|
G|-9--9--9--9--9--9--9--9----0--0--0----7--|---5---|
C|-9--9--9--9--9--9--9--9----0--0--0----7--|---5---|

---------------------------------------------------------------

10.TIME OF DYING

[Intro] (x2)
D|----------------------------------------|
A|----------------------------------------|
F|----------------------------------------|
C|----------------------------------------|
G|----------------------------------------|
C|-7--0-0--3--0-3-5-0--7--0-0--3-5-3-0-3--|

D|----------------------------------------|(x2)
A|----------------------------------------|
F|----------------------------------------|
C|-7--0-0--3--0-3-5-0--7--0-0--3-5-3-0-3--|
G|-7--0-0--3--0-3-5-0--7--0-0--3-5-3-0-3--|
C|-7--0-0--3--0-3-5-0--7--0-0--3-5-3-0-3--|

[Verse] (x1) They only play this in the 1st verse
D|-5-----3-------5-----3---------5-----3--------------5-------|---------|
A|----3----5--6-----3-----5---6-----3-----5--6--5--6-----5--6-|---------|
F|------------------------------------------------------------|---------|
C|------------------------------------------------------------|-8---10--|
G|------------------------------------------------------------|-8---10--|
C|------------------------------------------------------------|-8---10--|

D|---------------------------------------------------|(x1)
A|---------------------------------------------------|
F|---------------------------------------------------|
C|-7-0---0-0-0---7-0---0-0-0---7-0---0-0-0---8---10--|
G|-7-0---0-0-0---7-0---0-0-0---7-0---0-0-0---8---10--|
C|-7-0---0-0-0---7-0---0-0-0---7-0---0-0-0---8---10--|

Pre-chorus] (x1)
D|------------------------------------------------------------|
A|----3----3-----3----3-----6--6--6-----3----3-----3----3--8--|
F|-0----0-----0----0-----3-----3--3--0----0-----0----0-----5--|
C|------------------------------------------------------------|
G|------------------------------------------------------------|
C|------------------------------------------------------------|

Chorus (x1)                                                 Gtr.2 plays this 1/2 way through
D|----------------------------------------------------------------|-22------24---20-|
A|----------------------------------------------------------------|-----22----------|
F|----------------------------------------------------------------|-----------------|
C|-0---8---3---5---0---8---3---10---10---0---3---10---0---8---10--|-----------------|
G|-0---8---3---5---0---8---3---10----8---0---3---10---0---8---10--|-----------------|
C|-0---8---3---5---0---8---3---10----8---0---3---10---0---8---10--|-----------------|

Repeat Verse, Pre-chorus and Chorus.

[Bridge/Intro] (x1)
D|----------------------------------------|-----------------------------------------|
A|----------------------------------------|---------------------14b-----------------|
F|----------------------------------------|-----------------------------------------|
C|----------------------------------------|-----------------------------------------|
G|----------------------------------------|-----------------------------------------|
C|-7--0-0--3--0-3-5-0--7--0-0--3-5-3-0-3--|-7--0-0--3--0-3-5-0------0-0--3-5-3-0-3--|

D|----------------------------------------|(x2)
A|----------------------------------------|
F|----------------------------------------|
C|-7--0-0--3--0-3-5-0--7--0-0--3-5-3-0-3--|
G|-7--0-0--3--0-3-5-0--7--0-0--3-5-3-0-3--|
C|-7--0-0--3--0-3-5-0--7--0-0--3-5-3-0-3--|

Repeat Chorus, then end with the Verse.

-----------------------------------------------------------

11.GONE FOREVER

[Intro] (x1)
D|----------------------------------------------|
A|----------------------------------------------|
F|11-11-11-11-11-11-11-11-11-11-11-11-11-11-11--|
C|-9--9--9--9--9--9--9--9--9--9--9--9--9--9--9--|
G|-9--9--9--9--9--9--9--9--9--9--9--9--9--9--9--|
C|-9--9--9--9--9--9--9--9--9--9--9--9--9--9--9--|

[Verse] (x2)
D|--------------------------------------------------------|
A|--------------------------------------------------------|
F|11-11-11-11-11-11-11-11-----9--9--9--9--9--9--9---------|
C|-9--9--9--9--9--9--9--9-----7--7--7--7--7--7--7-----0~--|
G|-9--9--9--9--9--9--9--9-----7--7--7--7--7--7--7-----0~--|
C|-9--9--9--9--9--9--9--9-----7--7--7--7--7--7--7-----0~--|

Verse continued                            Play this 2nd time
D|-------------------------------------------|-----------|
A|---------------------3-3-3-3-3-3-----------|-----------|
F|-7-7-7-7-7-7-7-7-----2-2-2-2-2-2-----6-----|--9-9-9-9--|
C|-5-5-5-5-5-5-5-5-----0-0-0-0-0-0-----4-----|--7-7-7-7--|
G|-5-5-5-5-5-5-5-5-----0-0-0-0-0-0-----4-----|--7-7-7-7--|
C|-5-5-5-5-5-5-5-5-----0-0-0-0-0-0-----4-----|--7-7-7-7--|

Pre-chorus (x1)
D|---------------------0----|
A|---------------------7----|
F|-4-4-4-4---6-6-6-6---7----|
C|-2-2-2-2---4-4-4-4---5----|
G|-2-2-2-2---4-4-4-4---5----|
C|-2-2-2-2---4-4-4-4---5----|

[Chorus] (x1)
D|--------------------------------------------------------|
A|--------------------------------------------------------|
F|--------------------------------------------------------|
C|-4-4---5-5---0-0-0-0---7-7-7-7---4-4---5-5---0-0-0---7--|
G|-4-4---5-5---0-0-0-0---7-7-7-7---4-4---5-5---0-0-0---7--|
C|-4-4---5-5---0-0-0-0---7-7-7-7---4-4---5-5---0-0-0---7--|

D|------------------------------------------------------------------|
A|------------------------------------------------------------------|
F|------------------------------------------------------------------|
C|-9-9-9-9---5-5-5-5---0-0-0-0---7-7-7-7---5-5-5-5-5-5-5---4-5-7-9--|
G|-9-9-9-9---5-5-5-5---0-0-0-0---7-7-7-7---5-5-5-5-5-5-5---4-5-7-9--|
C|-9-9-9-9---5-5-5-5---0-0-0-0---7-7-7-7---5-5-5-5-5-5-5---4-5-7-9--|

[Bridge] (x1)
D|----------------------------------------------|
A|----------------------------------------------|
F|----------4-4-4-4-4-4-4-4-1111111111111111----|
C|----------2-2-2-2-2-2-2-2--9-9-9-9-9-9-9-9----|
G|-5p4p2p0--2-2-2-2-2-2-2-2--9-9-9-9-9-9-9-9----|
C|----------2-2-2-2-2-2-2-2--9-9-9-9-9-9-9-9----|

D|-------------------------------------|
A|-------------------------------------|
F|----------4-4-4-4-4-4-4-4-1111--9-9--|
C|----------2-2-2-2-2-2-2-2--9-9--7-7--|
G|-5p4p2p0--2-2-2-2-2-2-2-2--9-9--7-7--|
C|----------2-2-2-2-2-2-2-2--9-9--7-7--|

D|--------------------------------------------------------------------|
A|--------------------------------------------------------------------|
F|----------4-4-4-4-4-4-4-4-1111111111111111--------------------------|
C|----------2-2-2-2-2-2-2-2--9-9-9-9-9-9-9-9--5-5-5-5-5-5-5--4-5-7-9--|
G|-5p4p2p0--2-2-2-2-2-2-2-2--9-9-9-9-9-9-9-9--5-5-5-5-5-5-5--4-5-7-9--|
C|----------2-2-2-2-2-2-2-2--9-9-9-9-9-9-9-9--5-5-5-5-5-5-5--4-5-7-9--|

[Outro]
D|-------------------------------------------------------------------0---|
A|-------0-------0-----------------------0-------0-------0-----------0---|
F|-----7-------7-------7---------2-----7-------7-------7------------11---|
C|-----------------------4---2-4-------------------------------------9---|
G|---9-------5-------0-----0---------5-------5-------4--------5---7--9---|
C|-9-------5-------0---------------5-------5-------4--------5---7----9---|

-----------------------------------------------------------

12.ONE-X 

[Intro/verse] (x3)
D|--------------------------------------------------------------------|
A|--------------------------------------------------------------------|
F|-----9-----9-----9-----9--------5------9-----9-----9-----9--------5-|
C|-/7-----7-----7-----7-----0--3-----/7-----7-----7-----0-----0--3----|
G|--------------------------------------------------------------------|
C|--------------------------------------------------------------------|

[Pre-chorus] (x1)
D|---------------------------------------------|
A|-------------------------------------6--5----|
F|----------7----------5------------7--------5-|
C|-------5----------3------------5-------------|
G|----5----------3------------5----------------|
C|-5----------3------------5-------------------|

[Chorus] (x1)                         Gtr.2 ends w/ this
D|-----------------------------------|------------------|
A|-----------------------------------|------------------|
F|-----------------------------------|----10---9--------|
C|-7--0--3--7--0--3--7--0--3--0---3--|------------10----|
G|-7--0--3--7--0--3--7--0--3--0---3--|------------------|
C|-7--0--3--7--0--3--7--0--3--0---3--|------------------|

Repeat Intro/verse and Pre-chorus.

[Bridge] Gtr.1 (x1)
D|-------------------------------------------------------|
A|-------------------------------------------------------|
F|-------------------------------------------------------|
C|-7-7-7-7-7-7-7-7-7-7-7-7-7-7-7-7---3---7---10---0---3--|
G|-7-7-7-7-7-7-7-7-7-7-7-7-7-7-7-7---3---7---10---0---3--|
C|-7-7-7-7-7-7-7-7-7-7-7-7-7-7-7-7---3---7---10---0---3--|

[Solo] Gtr.2 while Gtr.1 plays bridge (x1)                                 
D|-----------------------------------------------------------|
A|-------------------------3----------------------------3----|
F|-2-2-2-2/4-4-4-5-5-5-5-2---4--2-2-2-2-4-4-2-5-5-5-5-2---4--|
C|-----------------------------------------------------------|
G|-----------------------------------------------------------|
C|-----------------------------------------------------------|

D|-------------------------------------10-------10-12-13--|
A|-10-10-10-10-12-12-12-10-13-13-13-13----12-10-----------|
F|--------------------------------------------------------|
C|--------------------------------------------------------|
G|--------------------------------------------------------|
C|--------------------------------------------------------|

Then they keep repeating the chorus while Gtr.2 plays this.

Gtr.2
D|------------|
A|------------|
F|-12-10-9----|
C|---------10-|
G|------------|
C|------------|

And there you go, you can play the solo on the D-string if you want, but I
think it sounds better on the G-string and B-string.

------------------------------------------------------------
That's all, good job guys.
Suggest correction
comments
print report bad tab
28 comments total. Showing first comments.
+1 reply
RS-GUITARIST 114 Jun 17, 2006 11:29 AM

I believe there is a tab for One-X now. It has, once again been tabbed by jaames.

+1 reply
Andrew Zara 41,509 Jun 17, 2006 08:07 PM

Thanks, I'll add it now.

+1 reply
U B the band 3,023 Jun 18, 2006 04:07 AM

That's preety cool that you gave the credit for each of the tabs to their owners and avoiding stupid remarks(saturate album)good job! Now I can print the whole One-X album out. 5 stars-PMT

guest
You may want to rate the tab now too:
select rating
Wanna post a correction for this tab? Suggest correction