Oops, an error
Loading. Please wait.

One-X Tab

version 2
version 2

Album

Whole song

Interactive

10,993 views 3 this week
7 commentsread comments
1 2 3 4 5
excellent!
x 7
add to favorites
launch autoscroll
font size
0
reset
how to read this tab
guitar tuner
Autoscroll
slow
fast
+/-
esc
set tempo
stop
Help us to improve Ultimate-Guitar.com Take our survey!
×
Contributor
Difficulty
intermediate
THREE DAYS GRACE ONE-X ALBUM TAB
I used all the highest rated tabs of the songs from the album and gave the member who tabbed it credit.

UPDATE:  I originally put 2 wrong songs in here.  Now the right songs are in. 
         Let It Die and Time of Dying are now in this tab.  Please Rate.

1.  It’s All Over (Ver 4) – Tabbed By U B The Band
2.  Pain (Ver 1) - Tabbed By Jaames
3.  Animal I Have Become (Ver 2) – Tabbed By SicFreak91
4.  Never Too Late (Ver 3) – Tabbed By I_R_Uber_001
5. On My Own (Ver 1) – Tabbed By Apalov 
6. Riot (Ver 2) – Tabbed By SicFreak91
7.  Get Out Alive (Ver 1) – Tabbed By Jaames
8.  Let It Die (Ver 1) – Tabbed By Jaames
9.  Over and Over (Ver 2) – Tabbed By Jaames
10.  Time of Dying (Ver 1) – Tabbed By Jaames
11.  Gone Forever (Ver 2) – Tabbed By Jaames
12.  One-X (Ver 1) - Tabbed By Jaames

1.  IT’S ALL OVER – Tabbed By U B The Band
Three Days Grace
It's All Over
tabbed by U B the band
tuning C G C F A D

x-srcatch
b-bend
h-hammer on
p-pull off
/-slide up

Okay this tab has everything in it please comment, correct and/or rate-PMT

Intro: 00:31
D|--------------------------------|
A|--------------------------------|
F|--------------------------------|
C|--0-0-0--7-7-7--3-3-3--2-3-2-3--|
G|--0-0-0--7-7-7--3-3-3--2-3-2-3--|
C|--0-0-0--7-7-7--3-3-3--2-3-2-3--|x3

D|----------------------|
A|----------------------|
F|----------------------|
C|--5-5-5-5-5-5-5--3----|
G|--5-5-5-5-5-5-5--3----|
C|--5-5-5-5-5-5-5--3----|

Verse 1: 00:42 Palm Muted
D|--------------------------------------|
A|--------------------------------------|
F|--------------------------------------|
C|--0-0-0-0--7-7-7-7--3-3-3-3--2-3-2-3--|
G|--0-0-0-0--7-7-7-7--3-3-3-3--2-3-2-3--|
C|--0-0-0-0--7-7-7-7--3-3-3-3--2-3-2-3--|x3

D|--------------------------------|
A|--------------------------------|
F|--------------------------------|
C|--5-5-5-5-5-5-5--3-3-3-3-3-3-3--|
G|--5-5-5-5-5-5-5--3-3-3-3-3-3-3--|
C|--5-5-5-5-5-5-5--3-3-3-3-3-3-3--|

D|--------------------------------------|
A|--------------------------------------|
F|--------------------------------------|
C|--0-0-0-0--7-7-7-7--3-3-3-3--2-3-2-3--|
G|--0-0-0-0--7-7-7-7--3-3-3-3--2-3-2-3--|
C|--0-0-0-0--7-7-7-7--3-3-3-3--2-3-2-3--|x3

Pre-chorus: 01:02 Distorted
D|-------------------------------|
A|-------------------------------|
F|-------------------------------|
C|--5-5-5-5-5-5-5-5--8---xx--10--|
G|--5-5-5-5-5-5-5-5--8---xx--10--|
C|--5-5-5-5-5-5-5-5--8---xx--10--|

Chorus: Guitar 1 01:08
D|--------------------------------------------------------|
A|--------------------------------------------------------|
F|--------------------------------------------------------|
C|--0----8----5-5-5-5-5-5-5--10-10-10-10-10-10-10----3----|
G|--0----8----5-5-5-5-5-5-5--10-10-10-10-10-10-10----3----|
C|--0----8----5-5-5-5-5-5-5--10-10-10-10-10-10-10----3----|x2

Guitar 2 Fill-in:
D|---------------------------------|
A|-----10-----10------10-----------|
F|--7------7------12------10--9-5--|
C|---------------------------------|
G|---------------------------------|
C|---------------------------------|x2

Verse 2: 01:31 Palm Muted
D|--------------------------------------|
A|--------------------------------------|
F|--------------------------------------|
C|--0-0-0-0--7-7-7-7--3-3-3-3--2-3-2-3--|
G|--0-0-0-0--7-7-7-7--3-3-3-3--2-3-2-3--|
C|--0-0-0-0--7-7-7-7--3-3-3-3--2-3-2-3--|x3

D|--------------------------------|
A|--------------------------------|
F|--------------------------------|
C|--5-5-5-5-5-5-5--3-3-3-3-3-3-3--|
G|--5-5-5-5-5-5-5--3-3-3-3-3-3-3--|
C|--5-5-5-5-5-5-5--3-3-3-3-3-3-3--|

D|--------------------------------------|
A|--------------------------------------|
F|--------------------------------------|
C|--0-0-0-0--7-7-7-7--3-3-3-3--2-3-2-3--|
G|--0-0-0-0--7-7-7-7--3-3-3-3--2-3-2-3--|
C|--0-0-0-0--7-7-7-7--3-3-3-3--2-3-2-3--|x3

Pre-chorus: 01:51 Distorted
D|-------------------------------|
A|-------------------------------|
F|-------------------------------|
C|--5-5-5-5-5-5-5-5--8---xx--10--|
G|--5-5-5-5-5-5-5-5--8---xx--10--|
C|--5-5-5-5-5-5-5-5--8---xx--10--|

Chorus: Guitar 1 01:57
D|--------------------------------------------------------|
A|--------------------------------------------------------|
F|--------------------------------------------------------|
C|--0----8----5-5-5-5-5-5-5--10-10-10-10-10-10-10----3----|
G|--0----8----5-5-5-5-5-5-5--10-10-10-10-10-10-10----3----|
C|--0----8----5-5-5-5-5-5-5--10-10-10-10-10-10-10----3----|x2

Guitar 2 Fill-in:
D|---------------------------------|
A|-----10-----10------10-----------|
F|--7------7------12------10--9-5--|
C|---------------------------------|
G|---------------------------------|
C|---------------------------------|

D|-----------------------------------|
A|-----10-----10------10-------------|
F|--7------7------12------10--9--6b--|
C|-------------------------------7---|
G|-----------------------------------|
C|-----------------------------------|

Bridge: 02:20
D|--------------------------------|
A|--------------------------------|
F|--------------------------------|
C|--0-0-0--7-7-7--3-3-3--2-3-2-3--|
G|--0-0-0--7-7-7--3-3-3--2-3-2-3--|
C|--0-0-0--7-7-7--3-3-3--2-3-2-3--|x3

D|-------------------|
A|-------------------|
F|-------------------|
C|--5-5-5-5-8-8-8-8--|
G|--5-5-5-5-8-8-8-8--|
C|--5-5-5-5-8-8-8-8--|

Guitar 1 for solo: 02:32
D|----------------------------------------------------|
A|----------------------------------------------------|
F|----------------------------------------------------|
C|--0----8----5-5-5-5-5-5-5--10-10-10-10-10-10-10--3--|
G|--0----8----5-5-5-5-5-5-5--10-10-10-10-10-10-10--3--|
C|--0----8----5-5-5-5-5-5-5--10-10-10-10-10-10-10--3--|x2

Solo: Guitar 2 02:32
D|--15h17h18-18-17b-------------------------------------------------------|
A|------------------15h17h18-18-17p15--------------------------18-17-15---|
F|-----------------------------------17p15-14----14h15-15-14b14--------17-|
C|-------------------------------------------14b--------------------------|
G|------------------------------------------------------------------------|
C|------------------------------------------------------------------------|

D|--15h17h18-18-17b-------------------------------------------------------|
A|------------------15h17h18-18-17p15------------------------------18-17--|
F|-----------------------------------17p15-14----14h15-15-14h15/17--------|
C|-------------------------------------------14b--------------------------|
G|------------------------------------------------------------------------|
C|------------------------------------------------------------------------|

D|------------|
A|--15--------|
F|-----17-19--|
C|------------|
G|------------|
C|------------|

Chord played clean at 03:06
D|-------|
A|--6----|
F|--9----|
C|--0----|
G|--0----|
C|-------|

Pre-chorus: 03:12 Distorted
D|-------------------------------|
A|-------------------------------|
F|-------------------------------|
C|--5-5-5-5-5-5-5-5-10-10-10-10--|
G|--5-5-5-5-5-5-5-5-10-10-10-10--|
C|--5-5-5-5-5-5-5-5-10-10-10-10--|

Chorus/Outro: 03:17
D|--------------------------------------------------------|
A|--------------------------------------------------------|
F|--------------------------------------------------------|
C|--0----8----5-5-5-5-5-5-5--10-10-10-10-10-10-10----3----|
G|--0----8----5-5-5-5-5-5-5--10-10-10-10-10-10-10----3----|
C|--0----8----5-5-5-5-5-5-5--10-10-10-10-10-10-10----3----|x3

D|---------------------------------|
A|-----10-----10------10-----------|
F|--7------7------12------10--9-5--|
C|---------------------------------|
G|---------------------------------|
C|---------------------------------|x3

D|--------------------------------|
A|--------------------------------|
F|--------------------------------|
C|--0-0-0--7-7-7--3-3-3--2-3-2-3--|
G|--0-0-0--7-7-7--3-3-3--2-3-2-3--|
C|--0-0-0--7-7-7--3-3-3--2-3-2-3--|

FINISHED! I hope you liked it-PMT

2.  PAIN – Tabbed by Jaames
Three Days Grace - Pain
Track 2 - One-X

Drop D tuning - D A D G B E
      
Guitar 1 - Adam Gontier
Guitar 2 - Barry Stock

Intro/Verse Gtr I
E|------0-------0------0--------0------0-------0--------0--------0--------------0-|x1
B|--------0--------------0---------------0-------0--------0--------0-------0------|
G|---12------12-----12-------12-----12-------12------12-------12--------12---12---|
D|-14------13-----12-------11-----14-------13------12-------11-------10-----------|
A|--------------------------------------------------------------------------------|
D|--------------------------------------------------------------------------------|

Chorus Gtr I, Gtr II
E|--------------------------------------------------------|
B|--------------------------------------------------------|
G|---------4-5-4-2----------------------4-5-4-2----2------|
D|-2--2----x-x-x-x----5----0----2--2----x-x-x-x----2----0-|
A|-2--2----2-3-2-0----5----0----2--2----2-3-2-0----0----0-|
D|-2--2---------------5----0----2--2--------------------0-|

E|--------------------------------------------------------------|x1
B|--------------------------------------------------------------|
G|---------4-5-4-2------------------------------------11-12-11--|
D|-2--2----x-x-x-x----5----0----12-12-12-12----0--0----x--x--x--|
A|-2--2----2-3-2-0----5----0----10-10-10-10----0--0----9-10--9--|
D|-2--2---------------5----0----10-10-10-10----0--0-------------|

Repeat Verse and Chorus

Bridge Gtr I, Gtr II
E|-----------------------------------------------|x2
B|-----------------------------------------------|
G|11-12-11-12-11-12-11-12-11--5-5-5-5--7-7-7-7---|
D|-9--9--9--9--9--9--9--9--9--5-5-5-5--7-7-7-7---|
A|----------------------------3-3-3-3--5-5-5-5---|
D|-----------------------------------------------|

Outro 
E|-------------------------------|x1
B|-------------------------------|
G|11--12--11--12--11--12--11--12-|
D|-9---9---9---9---9---9---9---9-|
A|-------------------------------|
D|-------------------------------|

A very easy song to learn.

3.  ANIMAL I HAVE BECOME – Tabbed by SicFreak91
Three Days Grace - "Animal I have Become"
Album: One - X

Tabbed by: SICfreak91

Figured this song out with a acoustic guitar. Not a hard song to play. I'm not 100% sure
correct, but I tried hard. TDG seem to use different tunings ( dropped D, D flat,
C) in there past songs, so your never really sure what to use with them


 UPDATE (4/10/06): i changed the verse, pre-chorus, and chorus slightly ... i would like
to give credit to Jaames ( username) for showing me some chords ... thanks man!

 UPDATE (4/19/06): Fixed strumming paternings in just about all parts, made some changes
to chorus ... and added 'high' guitar part in bridge and outro

 UPDATE (4/21/06): MAJOR change - the freaking tuning ...its drop C, I would like to thank
FENDER785 for helping me relize this

 UPDATE (6/2/06):  Finally added 'high' guitar part people been asking me why i haven't
put up ... sounds right to me ... there are actually a couple more different ways u can
it but they all sound the same ..also i updated the chorus and added where pickslides would
be ... its pretty much perfect now =p

**UPDATE** (7/22/06): Changed and fixed some spacing all over the tab. Also made a slight change
to the verse ... the vibarto (bend) on the 3th fret I put, I think, is a pinch harmonic. 
I noticed in the music video and in a few live proformances, 
Barry doesn't move his hand from the 3rd fret to do a vibarto 
on a different fret.
So I'm guessing a pinch har. is probably right.
I guess it would seem fine as just a regular bend on the 3rd fret but tell me what you think
of my pinch harmonic idea (if you don't kno what a pinch harmonic is, don't bother)

TUNING: DROPPED C (C G C F A D)


This is my first tab by the way ...

Intro: (bass intro first)
|---------------------------------------------------------------|
|---------------------------------------------------------------|
|---------------------------------------------------------------|
|---------------------------------------------------------------|
|-00----------7-------------------------------------------------|
|-00------7-8---8-7---------------------------------------------|x4

|---------------------------------------------------------------|
|---------------------------------------------------------------|
|---------------------------------------------------------------|
|-00------------------------------------------------------------|
|-00----------7-------------------------------------------------|
|-00------7-8---8-7---------------------------------------------|x3

|---------------------------------------------------------------|
|---------------------------------------------------------------|
|---------------------------------------------------------------|
|-00------------------------------------------------------------|
|-00----------7-------------------------------------------------|
|-00------7-8---8-----------------------------------------------|x1


Verse:
|---------------------------------------------------------------|
|---------------------------------------------------------------|
|---------------------------------------------------------------|
|-33-333-333-333------------------------------------------------|
|-33-333-333-333----------00------7----------00------7----------|
|-33-333-333-333--3(P.H)v-00--7-8---8-7------00--7-8---8--------|x3


Pre-chorus:
|---------------------------------------------------------------|
|---------------------------------------------------------------|
|---------------------------------------------------------------|
|--33-333-333-333-3-555-555-5-8~--------------------------------|
|--33-333-333-333-3-555-555-5-8~--------------------------------|
|--33-333-333-333-3-555-555-5-8~--------------------------------|x1


Chorus:

Guitar 1:
|---------------------------------------------------------------|
|--------10's---------------------------------------------------|
|--------V------------------------------------------------------|
|-00-10101010-33-7-78--00-10101010-33-55-32---------------------|
|-00-10101010-33-7-78--00-10101010-33-55-32---------------------|
|-00-10101010-33-7-78--00-10101010-33-55-32---------------------|x1

|---------------------------------------------------------------|
|---------------------------------------------------------------|
|---------------------------------------------------------------|
|-00-10101010-33-7-78--00-10101010-33--5-3-2~-------------------|
|-00-10101010-33-7-78--00-10101010-33--5-3-2~-------------------|
|-00-10101010-33-7-78--00-10101010-33--5-3-2~-------------------|x1

Guitar 2:
|-------12-12-13-13-17~-17-18-------12-12-13-13-15~-13-12-------|
|-15-15-----------------------15-15-----------------------------|
|---------------------------------------------------------------|
|---------------------------------------------------------------|
|---------------------------------------------------------------|
|---------------------------------------------------------------|x2


Re-intro:
|---------------------------------------------------------------|
|---------------------------------------------------------------|
|---------------------------------------------------------------|
|---------------------------------------------------------------|
|-00----------7------00----------7------------------------------|
|-00------7-8---8-7--00------7-8---8----------------------------|x1


Verse 2:
|---------------------------------------------------------------|
|---------------------------------------------------------------|
|---------------------------------------------------------------|
|-33-333-333-333------------------------------------------------|
|-33-333-333-333----------00------7----------00------7----------|
|-33-333-333-333--3(P.H)v-00--7-8---8-7------00--7-8---8--------|x3


Pre-Chorus:
|---------------------------------------------------------------|
|---------------------------------------------------------------|
|---------------------------------------------------------------|
|--33-333-333-333-3-555-555-5-8~--------------------------------|
|--33-333-333-333-3-555-555-5-8~--------------------------------|
|--33-333-333-333-3-555-555-5-8~--------------------------------|x1


Chorus 2:

Guitar 1:
|---------------------------------------------------------------|
|--------10's---------------------------------------------------|
|--------V------------------------------------------------------|
|-00-10101010-33-7-78--00-10101010-33-55-32---------------------|
|-00-10101010-33-7-78--00-10101010-33-55-32---------------------|
|-00-10101010-33-7-78--00-10101010-33-55-32---------------------|x2

|---------------------------------------------------------------|
|---------------------------------------------------------------|
|---------------------------------------------------------------|
|-00-10101010-33-7-78--00-10101010-33--5-3-2-0~-----------------|
|-00-10101010-33-7-78--00-10101010-33--5-3-2-0~-----------------|
|-00-10101010-33-7-78--00-10101010-33--5-3-2-0~-----------------|x1

Guitar 2:
|-------12-12-13-13-17~-17-18-------12-12-13-13-15~-13-12-------|
|-15-15-----------------------15-15-----------------------------|
|---------------------------------------------------------------|
|---------------------------------------------------------------|
|---------------------------------------------------------------|
|---------------------------------------------------------------|x3


Bridge:
Quick pickslide THEN ...
|---------------------------------------------------------------|
|---------------------------------------------------------------|
|---------------------------------------------------------------|
|-88-888-555-5----------00-000-333-333-3------------------------|
|-88-888-555-5----7-----00-000-333-333-3------------------------|
|-88-888-555-5--8---8-7-00-000-333-333-3------------------------|x2

|---------------------------------------------------------------|
|---------------------------------------------------------------|
|-----------------9---------------------------------------------|
|-88-888-8--0-7-8---8-7--0~~------------------------------------|
|-88-888-8---------------0~~------------------------------------|
|-88-888-8---------------0~~------------------------------------|x1


Re-intro:
|---------------------------------------------------------------|
|---------------------------------------------------------------|
|---------------------------------------------------------------|
|---------------------------------------------------------------|
|-00----------7-------------------------------------------------|
|-00------7-8---8-7---------------------------------------------|x4


Chorus 3: (TWO riffs of no bass and treble first)

Guitar 1:
|---------------------------------------------------------------|
|--------10's---------------------------------------------------|
|--------V------------------------------------------------------|
|-00-10101010-33-7-78--00-10101010-33-55-32---------------------|
|-00-10101010-33-7-78--00-10101010-33-55-32---------------------|
|-00-10101010-33-7-78--00-10101010-33-55-32---------------------|x1

|---------------------------------------------------------------|
|---------------------------------------------------------------|
|---------------------------------------------------------------|
|-00-10101010-33-7-78--00-10101010-33--5-3-2-0~-----------------|
|-00-10101010-33-7-78--00-10101010-33--5-3-2-0~-----------------|
|-00-10101010-33-7-78--00-10101010-33--5-3-2-0~-----------------|x1

Guitar 2:
|-------12-12-13-13-17~-17-18-------12-12-13-13-15~-13-12-------|
|-15-15-----------------------15-15-----------------------------|
|---------------------------------------------------------------|
|---------------------------------------------------------------|
|---------------------------------------------------------------|
|---------------------------------------------------------------|x2


Outro:
|---------------------------------------------------------------|
|---------------------------------------------------------------|
|---------------------------------------------------------------|
|-00------------------------------------------------------------|
|-00----------7-------------------------------------------------|
|-00------7-8---8-7---------------------------------------------|x6

|---------------------------------------------------------------|
|---------------------------------------------------------------|
|-------9v------------------------------------------------------|
|-0-7-8----8-7--------------------------------------------------|
|---------------------------------------------------------------|
|---------------------------------------------------------------|x4

|---------------------------------------------------------------|
|---------------------------------------------------------------|
|---------------------------------------------------------------|
|-0~~~~~--------------------------------------------------------|
|-0~~~~~--------------------------------------------------------|
|-0~~~~~--------------------------------------------------------|x1

... THEN a long, kinda slow, pickslide to 1st fret

** Hope you like it ... please rate **

4.  NEVER TOO LATE – Tabbed by I_R_Uber_001
Song:Never Too Late
Band: Three Days Grace
Album: One-X
Tuning: Drop D
Tabbed By: I_R_Uber_001

Intro/verse/outro acoustic (x3)                 (x1)
E|--------------------------------|-------------------|
B|--------------------------------|-------------------|
G|--------------------------------|-------------------|
D|-------10-----------10--8--7--0-|-------10-----10---|
A|----8------8-----0--------------|----7------7--10---|
D|-8------------0-----------------|-7------------10---|

Chorus distorted (x1)
E|-----------------------------------------|
B|-----------------------------------------|
G|-----------------------------------------|
D|-0----8----7----10----0----8----7----10--|
A|-0----8----7----10----0----8----7----10--|
D|-0----8----7----10----0----8----7----10--|

E|-----------------------------------------|
B|-----------------------------------------|
G|-----------------------------------------|
D|-0----8----7----10----88---0----7----10--|
A|-0----8----7----10----88---0----7----10--|
D|-0----8----7----10----88---0----7----10--|

Intro/verse/outro acoustic (x3)                 (x1)
E|--------------------------------|-------------------|
B|--------------------------------|-------------------|
G|--------------------------------|-------------------|
D|-------10-----------10--8--7--0-|-------10-----10---|
A|----8------8-----0--------------|----7------7--10---|
D|-8------------0-----------------|-7------------10---|


Chorus distorted (x1)
E|-----------------------------------------|
B|-----------------------------------------|
G|-----------------------------------------|
D|-0----8----7----10----0----8----7----10--|
A|-0----8----7----10----0----8----7----10--|
D|-0----8----7----10----0----8----7----10--|

E|-----------------------------------------|
B|-----------------------------------------|
G|-----------------------------------------|
D|-0----8----7----10----88---0----7----10--|
A|-0----8----7----10----88---0----7----10--|
D|-0----8----7----10----88---0----7----10--|


Bridge (x3)                                          (x1)
E|---------------------------------------------|-----------|
B|--------------- -----------------------------|-----------|
G|---------------------------------------------|-----------|
D|-8-8-8-8--8-8-8-8--8-8--3-3-3--10-10-10-10---|-8--7--10--|
A|-8-8-8-8--8-8-8-8--8-8--3-3-3--10-10-10-10---|-8--7--10--|
D|-8-8-8-8--8-8-8-8--8-8--3-3-3--10-10-10-10---|-8--7--10--|

E|------------------|
B|------------------|
G|------------------|    (x3)
D|-------10-----12--|
A|----8-------------|
D|-8---------0------|

Chorus distorted (x1)
E|-----------------------------------------|
B|-----------------------------------------|
G|-----------------------------------------|
D|-0----8----7----10----0----8----7----10--|
A|-0----8----7----10----0----8----7----10--|
D|-0----8----7----10----0----8----7----10--|
                            (x6)
E|--------------------|-----------|
B|--------------------|-----------|
G|--------------------|-----------|
D|-0----8----7----10--|-88---0----|
A|-0----8----7----10--|-88---0----|
D|-0----8----7----10--|-88---0----|

Intro/verse/outro acoustic (x3)                 (x1)
E|--------------------------------|-------------------|
B|--------------------------------|-------------------|
G|--------------------------------|-------------------|
D|-------10-----------10--8--7--0-|-------10-----10---|
A|----8------8-----0--------------|----7------7--10---|
D|-8------------0-----------------|-7------------10---|

There was a second guitar(Which I didn't tab) in studios but since live there's only one 
i think this is how he will play it live.
Any comments,corrections or questions e-mail me at rolling_suicide_314@hotmail.com

5.  ON MY OWN – Tabbed by Apalov
Artist: Three Days Grace
Song: On My Own
Album: OneX
Tuning: Dropped C
Tabber: Alex Pavlov (alex-pavlov@hotmail.com)

Intro/Verses
|------------------------|  |-------------------------|   ---
|------------------------|  |-------------------------|      |
|------------------------|  |-------------------------|      |
|---------6-----6--4--7--|or|-------0-6----6--4--7----| (x2) |
|-----4-5-------4--4--4--|  |---0-4--------4--4--4----|      |
|-4-7-------4------------|  |-4---------4-------------|      |
                                                             |-----(x2)
|-----------------------------------------------------|      |
|-----------------------------------------------------|      |
|-----------------------------------------------------|      |
|---------6\-----6--4--2--------------------4--2--0---|      |
|-----4-5--------2--2--2-----------0-2-4----0--0--0---|      |
|-4-7--------2-----------------2-4-------0------------|   ---

Pre-Chorus
|-----------------------|    |------------------------|
|-----------------------|    |------------------------|
|-----------------------|    |------------------------|
|-4-4-7-7-11-11h12-0----|(x2)|-4-4-7-7-11-11h12-2-----|
|-4-4-7-7-11-11h12-0----|    |-4-4-7-7-11-11h12-2-----|
|-4-4-7-7-11-11h12-0----|    |-4-4-7-7-11-11h12-2-----|

|-----------------------|
|-----------------------|
|-----------------------|
|-4-4-7-7-11-11h12-0----|
|-4-4-7-7-11-11h12-0----|
|-4-4-7-7-11-11h12-0----|

Chorus
|------------------------------------------------------|
|------------------------------------------------------|
|----------------------13-----13-----------------------|
|-4--4--4-2-4-7-----0--x---0--x--9--11-11-11-11-9-9-9--| (x2)
|-4--4--4-2-4-7-----0--11--0--11-9--9--9--9--9--9-9-12-|
|-4--4--4-2-4-7-----0------0-----9--9--9--9--9--9-9-9--|

Verse

Chorus

Bridge

(from chorus)
|---------------------|---|
|---------------------|   |
|---------------------|   |
|--9-9-7-7-6-6/4--2~--|   |
|--x-x-x-x-x-x-x--2~--|   |
|--9-9-7-7-6-6/4--2~--|   |
                          |---(x2)
|---------------------|   |
|---------------------|   |
|---------------------|   |
|--9-9-7-7-6-6-4--0~--|   |
|--x-x-x-x-x-x-x--0~--|   |
|--9-9-7-7-6-6-4--0~--|---|

Chorus

End on
|---------------------|
|---------------------|   
|---------------------|   
|--9-9-7-7-6-6/4--2~--|   
|--x-x-x-x-x-x-x--2~--|   
|--9-9-7-7-6-6/4--2~--|

6.  RIOT – Tabbed by SicFreak91
Three Days Grace - "Riot"
Album: One-X

Tabbed by: Sicfreak91

A different, but awesome song, by Three Days Grace. The chorus lyrics can get a little 
but the verse, bridge, and the guitar riffs are just awesome.

Tuning: Drop C

Note: I tried to time guitar 1 and guitar 2 as close as I could

Intro:
|---------------------------------------------------------------|
|---------------------------------------------------------------|
|---------------------------------------------------------------|
|-----------8-7-5-7-5-----------5-7-8-7-5---5-7-----------------|
|-555-8-7-5-----------8---555-8-----------8---------------------|
|---------------------------------------------------------------|x1
pm... . . . . . . . . .   ... . . . . . . . . .

|---------------------------------------------------------------|
|---------------------------------------------------------------|
|---------------------------------------------------------------|
|-----------8-7-5-7-5-----------5-7-8-7-------------------------|
|-555-8-7-5-----------8---555-8---------------------------------|
|---------------------------------------------------------------|x1
pm... . . . . . . . . .   ...


Verse:
Guitar 1:
|---------------------------------------------------------------|
|---------------------------------------------------------------|
|---------------------------------------------------------------|
|-----------8-7-5-7-5-----------5-7-8-7-5---5-7-----------------|
|-555-8-7-5-----------8---555-8-----------8---------------------|
|---------------------------------------------------------------|x1
pm... . . . . . . . . .   ... . . . . . . . . .

Guitar 2:
|---------------------------------------------------------------|
|---------------------------------------------------------------|
|---------------------------------------------------------------|
|-0~~~--------------------3~~~----------------------------------|
|-0~~~--------------------3~~~----------------------------------|
|-0~~~--------------------3~~~----------------------------------|x1

====================
Guitar 1:
|---------------------------------------------------------------|
|---------------------------------------------------------------|
|---------------------------------------------------------------|
|-----------8-7-5-7-5-----------5-7-8-7~------------------------|
|-555-8-7-5-----------8---555-8---------------------------------|
|---------------------------------------------------------------|x1
pm... . . .     . . . .   ...

Guitar 2:
|---------------------------------------------------------------|
|---------------------------------------------------------------|
|---------------------------------------------------------------|
|-8~~~--------------------8~~~----7~~~--------------------------|
|-8~~~--------------------8~~~----7~~~--------------------------|
|-8~~~--------------------8~~~----7~~~--------------------------|x1

whole verse x3


Chorus 1:
|---------------------------------------------------------------|
|---------------------------------------------------------------|
|---------------------------------------------------------------|
|-0--3-0-8-7---03-0-8-7--0--3-0-8-7--5--5-5-10-10-10--12--------|
|-0--3-0-8-7---03-0-8-7--0--3-0-8-7--5--5-5-10-10-10--12--------|
|-0--3-0-8-7---03-0-8-7--0--3-0-8-7--5--5-5-10-10-10--12--------|x1

|---------------------------------------------------------------|
|---------------------------------------------------------------|
|---------------------------------------------------------------|
|-0--3-0-8-7---03-0-8-7--0--3-0-8-7--5--5-5---------------------|
|-0--3-0-8-7---03-0-8-7--0--3-0-8-7--5--5-5---------------------|
|-0--3-0-8-7---03-0-8-7--0--3-0-8-7--5--5-5--8-7-5-7-5-3--------|x1
pm                                           . . . . . .


Verse 2: Same as verse 1 (x4)


Chorus 2:
|---------------------------------------------------------------|
|---------------------------------------------------------------|
|---------------------------------------------------------------|
|-0--3-0-8-7---03-0-8-7--0--3-0-8-7--5--5-5-10-10-10--12--------|
|-0--3-0-8-7---03-0-8-7--0--3-0-8-7--5--5-5-10-10-10--12--------|
|-0--3-0-8-7---03-0-8-7--0--3-0-8-7--5--5-5-10-10-10--12--------|x2

|---------|
|---------|
|---------|
|-0~~~~---|
|-0~~~~---|
|-0~~~~---|x1


Breakdown:
|---------------------------------------------------------------|
|---------------------------------------------------------------|
|---------------------------------------------------------------|
|---------------------------------------------------------------|
|----------6-5-3-5-3-5----------------6-5-3-5-------------------|
|-555-8-55-------------(x3)--555-8-55---------(x1)--------------|
pm... . .. . . . . . .       ... . .. . . . .

|---------------------------------------------------------------|
|---------------------------------------------------------------|
|---------------------------------------------------------------|
|----------8----7---5-------------------------------------------|
|-555-8-55---55---5----(x4)-------------------------------------|
|---------------------------------------------------------------|
pm... . .. . .. . . .

|---------------------------------------------------------------|
|---10's--------------------------------------------------------|
|----V----------------------------------------------------------|
|----------------13------12------10--------------------13-----12|
|-101010-13-1010----1010----1010---(x3)-101010-13-1010----1010--|(x1)
|---------------------------------------------------------------|
pm...... .. .... .. .... .. .... ..     ...... .. .... .. ......


Bridge:
Guitar 1:
|-10~~~---------------------------------------------------------|
|---------10~~~---10b11~~r10------------------------------------|
|------------------------------10~~~----------------------------|
|------------------------------------12-------------------------|
|---------------------------------------------------------------|
|---------------------------------------7V*---------------------|

Guitar 2:
|---------------------------------------------------------------|
|---------------------------------------------------------------|
|---------------------------------------------------------------|
|-0~~~----3~~~----8~~~---------7-77-----------------------------|
|-0~~~----3~~~----8~~~---------7-77-----------------------------|
|-0~~~----3~~~----8~~~---------7-77-----------------------------|

===============
Guitar 1:
|-10~~~---------------------------------------------------------|
|---------10~~~---10b11-<-hold----------------------------------|
|---------------------------------------------------------------|
|---------------------------------------------------------------|
|---------------------------------------------------------------|
|---------------------------------------------------------------|

Guitar 2:
|---------------------------------------------------------------|
|---------------------------------------------------------------|
|---------------------------------------------------------------|
|-0~~~----3~~~----8---------------------------------------------|
|-0~~~----3~~~----8-<-x18---------------------------------------|
|-0~~~----3~~~----8---------------------------------------------|
pm                .


Chorus 3: ( after riff using pedal effect)
|---------------------------------------------------------------|
|---------------------------------------------------------------|
|---------------------------------------------------------------|
|-0--3-0-8-7---03-0-8-7--0--3-0-8-7--5--5-5-10-10-10--12--------|
|-0--3-0-8-7---03-0-8-7--0--3-0-8-7--5--5-5-10-10-10--12--------|
|-0--3-0-8-7---03-0-8-7--0--3-0-8-7--5--5-5-10-10-10--12--------|x3


Outro:
Guitar 1:
|-10~~~---------------------------------------------------------|
|------------10~~~------10b11~~r10------------------------------|
|-----------------------------------10~~~-----------------------|
|-------------------------------------------12~~~~--------------|
|---------------------------------------------------------------|
|---------------------------------------------------------------|x1

Guitar 2:
|---------------------------------------------------------------|
|---------------------------------------------------------------|
|---------------------------------------------------------------|
|-0--3-0-8-7---03-0-8-7--0--3-0-8-7--5--5-5-10-10-10--12--0~~~~-|
|-0--3-0-8-7---03-0-8-7--0--3-0-8-7--5--5-5-10-10-10--12--0~~~~-|
|-0--3-0-8-7---03-0-8-7--0--3-0-8-7--5--5-5-10-10-10--12--0~~~~-|x1


 ... tell me how that freaking sounds, lol

7.  GET OUT ALIVE – Tabbed By Jaames
Artist : Three Days Grace
Song   : Get Out Alive
Album  : One-X
Tuning : Drop D

Tabbed by jaames

Intro/verse (x6)
E|---------------------------------------------------------------------|
B|---------------------------------------------------------------------|
G|---------------------------------------------------------------------|
D|----0--------0-------0--------0-------0--------0--------0------------|
A|----------5-----5-6--------3-----3-5--------1-----1--3--------0-1-0--|
D|-5-----0----------------0----------------0-----------------0---------|

Chorus (x2)
E|----------------------------------------------------------|
B|----------------------------------------------------------|
G|-------0---0--------0---0------------0---0---------0---0--|
D|---------0------------0----------------0-------------0----|
A|---5------------1--------------3--------------5-----------|
D|-5---5--------1---1---------3-----3---------5---5---------|

Repeat Intro/verse and Chorus.

Bridge (x2)
E|------------------------------------------------------------------------|
B|------------------------------------------------------------------------|
G|------------------------------------------------------------------------|
D|1010101010101010---0-0-0-0-0-0-0-0---5-5-5-5-5-5-5-5--0-1-1-1-1-1-1-1-1-|
A|-8-8-8-8-8-8-8-8---0-0-0-0-0-0-0-0---5-5-5-5-5-5-5-5--0-1-1-1-1-1-1-1-1-|
D|-8-8-8-8-8-8-8-8---0-0-0-0-0-0-0-0---5-5-5-5-5-5-5-5--0-1-1-1-1-1-1-1-1-|

Play verse again, then this 
Verse 2 (x2)
E|-------------------------------------------------------|
B|-------------------------------------------------------|
G|-------------------------------------------------------|
D|-8-7-5-5--0-0--13-13--10-10--0-0--8-8--10-10--8-7--5-5-|
A|-8-7-5-5--0-0--13-13--10-10--0-0--8-8--10-10--8-7--5-5-|
D|-8-7-5-5--0-0--13-13--10-10--0-0--8-8--10-10--8-7--5-5-|

Chorus (x6) Gtr.1
E|----------------------------------------------------------|
B|----------------------------------------------------------|
G|-------0---0--------0---0------------0---0---------0---0--|
D|---------0------------0----------------0-------------0----|
A|---5------------1--------------3--------------5-----------|
D|-5---5--------1---1---------3-----3---------5---5---------|

Gtr.2 comes in 4th time and plays this
E|---------------------------------------------------------------------|
B|---------------------------------------------------------------------|
G|---------------------------------------------------------------------|
D|-5-5-5-5-5-5-5-5--1-1-1-1-1-1-1-1--3-3-3-3-3-3-3-3--5-5-5-5-5-5-5-5--|
A|-5-5-5-5-5-5-5-5--1-1-1-1-1-1-1-1--3-3-3-3-3-3-3-3--5-5-5-5-5-5-5-5--|
D|-5-5-5-5-5-5-5-5--1-1-1-1-1-1-1-1--3-3-3-3-3-3-3-3--5-5-5-5-5-5-5-5--|

Repeat Bridge, then the Chorus again.

And thats it, cool song, I didn't put alot of effort into it, so let me know
if there's any mistakes.

8.  Let It Die – Tabbed By Jaames
Artist : Three Days Grace
Song   : Let It Die
Album  : One-X
Tuning : Drop D

Tabbed by jaames

Intro (x1)
E|------------------------------------------------|
B|------------------------------------------------|
G|------------------------------------------------|
D|-7-7--7-7--10-10--10-10---5-5--5-5---5-5--5-5---|
A|-5-5--5-5---7--7---7--7---3-3--3-3---3-3--3-3---|
D|-5-5--5-5---7--7---7--7---3-3--3-3---3-3--3-3---|

Verse (x2)                                               Gtr.2 plays this
E|-----------------------------------------------------|------------------|(x2)
B|-----------------------------------5-----------5-----|------------------|
G|----------7------------9-----------------------------|-/9--7--5--/12--7-|
D|-7--7--7-----10-10-10-----5--5--5-----5--5--5--------|------------------|
A|-5--5--5------7--7--7-----3--3--3-----3--3--3--------|------------------|
D|-5--5--5------7--7--7-----3--3--3-----3--3--3--------|------------------|

Pre-chorus PM (x2)
E|--------------------------------------|
B|--------------------------------------|
G|-5-5-5-5-5-5-5-5---5-5-5-5---5-5-5-5--|
D|-2-2-2-2-2-2-2-2---3-3-3-3---5-5-5-5--|
A|--------------------------------------|
D|--------------------------------------|

Chorus (x2)
E|----------------------------------------------------------------------|
B|----------------------------------------------------------------------|
G|----------------------------------------------------------------------|
D|-7-7---10-10---0---3-3---10-10---5---7-7---10-10---0---3-3-3-3---5-5--|
A|-7-7---10-10---0---3-3---10-10---5---7-7---10-10---0---3-3-3-3---5-5--|
D|-7-7---10-10---0---3-3---10-10---5---7-7---10-10---0---3-3-3-3---5-5--|

Bridge (x2)
E|-------------------------------------|-------------------------------------|(x2)
B|-------------------------------------|-------------------------------------|
G|-------------------------------------|-------------------------------------|
D|-0-0-0-0--2-2-2-2--3-3-3-3--5-5-5-5--|-7-7-7-7--0-0-0-0--3-3-3-3--5-5-5-5--|
A|-0-0-0-0--2-2-2-2--3-3-3-3--5-5-5-5--|-7-7-7-7--0-0-0-0--3-3-3-3--5-5-5-5--|
D|-0-0-0-0--2-2-2-2--3-3-3-3--5-5-5-5--|-7-7-7-7--0-0-0-0--3-3-3-3--5-5-5-5--|

Then this, while the chorus is playing (x2)
E|----------------------------------------|----------------------------------------|
B|----------------------------------------|----------------------------------------|
G|-9--9---12-12---11---5--5---12--12---7--|-9--9---12-12--11---5--5--5---x-x---7-7-|
D|-x--x----x--x----x---x--x----x---x---x--|-x--x----x--x---x---x--x--x---x-x---x-x-|
A|-7--7---10-10----9---3--3---10--10---5--|-7--7---10-10---9---3--3--3---x-x---5-5-|
D|----------------------------------------|----------------------------------------|

Ending
E|---------------------|
B|---------------------|
G|-/9--7--5--/12--9----|
D|---------------------|
A|---------------------|
D|---------------------|
And thats its, probably not perfect, but it sounds good I think.

9.  OVER AND OVER – Tabbed By Jaames
Artist : Three Days Grace
Song   : Over & Over
Album  : One-X
Tuning : Drop D

Tabbed by jaames

Intro/verse (acous.) (x6)
E|-------------------------------------------------------------------|
B|-------------------------------------------------------------------|
G|---------2-0-------------2-0--------------2-0-------------2-0------|
D|-----3-------3-------3-------3--------3-------3-------3-------3----|
A|---3---3-------3---3---3-------3----0---0-------0---0---0-------0--|
D|-3---------------3----------------0---------------0----------------|

Pre-chorus (x1)
E|-------------------------------------------------------------|
B|-------------------------------------------------------------|
G|-----------------------------------------------------5~------|
D|-8-8-8-8-8-8-8-8--0-0-0-0-0-0-0-0---3-3-3-3-3-3-3-3--5~--2~--|
A|-8-8-8-8-8-8-8-8--0-0-0-0-0-0-0-0---3-3-3-3-3-3-3-3--3~--2~--|
D|-8-8-8-8-8-8-8-8--0-0-0-0-0-0-0-0---3-3-3-3-3-3-3-3------2~--|

Chorus (x1)
E|------------------------------------------------------------|
B|------------------------------------------------------------|
G|------------------------------------5-5-5-------------------|
D|-7-7-7-7-7-7------3-3-3-3-3-3-------5-5-5-------5-5-5-------|
A|-7-7-7-7-7-7------3-3-3-3-3-3-------3-3-3-------5-5-5-------|
D|-7-7-7-7-7-7------3-3-3-3-3-3-------------------5-5-5-------|

E|------------------------------------------------------|
B|------------------------------------------------------|
G|------------------------------------------------------|
D|-7-7-7-7-7-7------3-3-3-3-3-3-------0-0-0-0-----5-2---|
A|-7-7-7-7-7-7------3-3-3-3-3-3-------0-0-0-0-----5-2---|
D|-7-7-7-7-7-7------3-3-3-3-3-3-------0-0-0-0-----5-2---|

Bridge (x2)
E|----------------------------------------------------|
B|----------------------------------------------------|
G|11-11-11-11-11-11-11-11---11-11-11-11-11-11-11-11---|
D|11-11-11-11-11-11-11-11---11-11-11-11-11-11-11-11---|
A|-9--9--9--9--9--9--9--9----0--0--0--0--0--0--0--0---|
D|-9--9--9--9--9--9--9--9----0--0--0--0--0--0--0--0---|

                                    2nd time end w/ this chord
E|-----------------------------------------|-------|
B|-----------------------------------------|-------|
G|11-11-11-11-11-11-11-11---11-11-11----9--|---7---|
D|11-11-11-11-11-11-11-11---11-11-11----9--|---7---|
A|-9--9--9--9--9--9--9--9----0--0--0----7--|---5---|
D|-9--9--9--9--9--9--9--9----0--0--0----7--|---5---|

And thats it, a very easy song to play.

10.  TIME OF DYING – Tabbed By Jaames
Artist : Three Days Grace
Song   : Time Of Dying
Album  : One-X
Tuning : Drop C

Tabbed by jaames

Intro (x2)
D|----------------------------------------|
A|----------------------------------------|
F|----------------------------------------|
C|----------------------------------------|
G|----------------------------------------|
C|-7--0-0--3--0-3-5-0--7--0-0--3-5-3-0-3--|


D|----------------------------------------|(x2)
A|----------------------------------------|
F|----------------------------------------|
C|-7--0-0--3--0-3-5-0--7--0-0--3-5-3-0-3--|
G|-7--0-0--3--0-3-5-0--7--0-0--3-5-3-0-3--|
C|-7--0-0--3--0-3-5-0--7--0-0--3-5-3-0-3--|


Verse (x1) They only play this in the 1st verse
D|-5-----3-------5-----3---------5-----3--------------5-------|---------|
A|----3----5--6-----3-----5---6-----3-----5--6--5--6-----5--6-|---------|
F|------------------------------------------------------------|---------|
C|------------------------------------------------------------|-8---10--|
G|------------------------------------------------------------|-8---10--|
C|------------------------------------------------------------|-8---10--|


D|---------------------------------------------------|(x1)
A|---------------------------------------------------|
F|---------------------------------------------------|
C|-7-0---0-0-0---7-0---0-0-0---7-0---0-0-0---8---10--|
G|-7-0---0-0-0---7-0---0-0-0---7-0---0-0-0---8---10--|
C|-7-0---0-0-0---7-0---0-0-0---7-0---0-0-0---8---10--|


Pre-chorus (x1)
D|------------------------------------------------------------|
A|----3----3-----3----3-----6--6--6-----3----3-----3----3--8--|
F|-0----0-----0----0-----3-----3--3--0----0-----0----0-----5--|
C|------------------------------------------------------------|
G|------------------------------------------------------------|
C|------------------------------------------------------------|

Chorus (x1)                                                 Gtr.2 plays this 1/2 way through
D|----------------------------------------------------------------|-22------24---20-|
A|----------------------------------------------------------------|-----22----------|
F|----------------------------------------------------------------|-----------------|
C|-0---8---3---5---0---8---3---10---10---0---3---10---0---8---10--|-----------------|
G|-0---8---3---5---0---8---3---10----8---0---3---10---0---8---10--|-----------------|
C|-0---8---3---5---0---8---3---10----8---0---3---10---0---8---10--|-----------------|

Repeat Verse, Pre-chorus and Chorus.

Bridge/Intro (x1)
D|----------------------------------------|-----------------------------------------|
A|----------------------------------------|---------------------14b-----------------|
F|----------------------------------------|-----------------------------------------|
C|----------------------------------------|-----------------------------------------|
G|----------------------------------------|-----------------------------------------|
C|-7--0-0--3--0-3-5-0--7--0-0--3-5-3-0-3--|-7--0-0--3--0-3-5-0------0-0--3-5-3-0-3--|


D|----------------------------------------|(x2)
A|----------------------------------------|
F|----------------------------------------|
C|-7--0-0--3--0-3-5-0--7--0-0--3-5-3-0-3--|
G|-7--0-0--3--0-3-5-0--7--0-0--3-5-3-0-3--|
C|-7--0-0--3--0-3-5-0--7--0-0--3-5-3-0-3--|

Repeat Chorus, then end with the Verse.

11.     GONE FOREVER – Tabbed By Jaames
Artist : Three Days Grace
Song   : Gone Forever
Album  : One-X
Tuning : Drop D
Tabber : jaames

Intro 
E|----------------------------------------------|(x1)
B|----------------------------------------------|
G|11-11-11-11-11-11-11-11-11-11-11-11-11-11-11--|
D|-9--9--9--9--9--9--9--9--9--9--9--9--9--9--9--|
A|-9--9--9--9--9--9--9--9--9--9--9--9--9--9--9--|
D|-9--9--9--9--9--9--9--9--9--9--9--9--9--9--9--|

Verse "Don't know whats going on, don't know what went wrong"
E|--------------------------------------------------------|(x2)
B|--------------------------------------------------------|
G|11-11-11-11-11-11-11-11------9--9--9--9--9--9-----------|
D|-9--9--9--9--9--9--9--9------7--7--7--7--7--7-------0~--|
A|-9--9--9--9--9--9--9--9------7--7--7--7--7--7-------0~--|
D|-9--9--9--9--9--9--9--9------7--7--7--7--7--7-------0~--|

"Feels like a hundred years I, still can't believe you're gone"                          
E|-------------------------------------------|-----------|
B|-------------------------------------------|-----------|
G|-7-7-7-7-7-7-7-7-----2-2-2-2-2-2-----6-----|--9-9-9-9--|
D|-5-5-5-5-5-5-5-5-----0-0-0-0-0-0-----4-----|--7-7-7-7--| <---Play this 2nd time
A|-5-5-5-5-5-5-5-5-----0-0-0-0-0-0-----4-----|--7-7-7-7--|
D|-5-5-5-5-5-5-5-5-----0-0-0-0-0-0-----4-----|--7-7-7-7--|

Pre-chorus (x1)
E|---------------------0----|
B|---------------------7----|
G|-4-4-4-4---6-6-6-6---7----|
D|-2-2-2-2---4-4-4-4---5----|
A|-2-2-2-2---4-4-4-4---5----|
D|-2-2-2-2---4-4-4-4---5----|

Chorus "I feel so much better, now that you're gone forever"
E|--------------------------------------------------------|(x2)
B|--------------------------------------------------------|
G|--------------------------------------------------------|
D|-4-4---5-5---0-0-0-0---7-7-7-7---4-4---5-5---0-0-0---7--|
A|-4-4---5-5---0-0-0-0---7-7-7-7---4-4---5-5---0-0-0---7--|
D|-4-4---5-5---0-0-0-0---7-7-7-7---4-4---5-5---0-0-0---7--|

"I'm not lying, denying that I feel so much better now"          Play before 2nd verse   
E|------------------------------------------------------------------|(x1)|------|(x6)
B|------------------------------------------------------------------|    |------|
G|-----------------------------------------7-7-7-7-7-7-7---6-7-9-11-|    |-11b--|
D|-9-9-9-9---5-5-5-5---0-0-0-0---7-7-7-7---5-5-5-5-5-5-5---4-5-7--9-|    |--9---|
A|-9-9-9-9---5-5-5-5---0-0-0-0---7-7-7-7---5-5-5-5-5-5-5---4-5-7--9-|    |--9---|
D|-9-9-9-9---5-5-5-5---0-0-0-0---7-7-7-7---5-5-5-5-5-5-5---4-5-7--9-|    |--9---|

Bridge "First time you screamed at me, I should have made you leave"
E|----------------------------------------------|(x1)
B|----------------------------------------------|
G|----------4-4-4-4-4-4-4-4-1111111111111111----|
D|----------2-2-2-2-2-2-2-2--9-9-9-9-9-9-9-9----|
A|-5-4-2-0--2-2-2-2-2-2-2-2--9-9-9-9-9-9-9-9----|
D|----------2-2-2-2-2-2-2-2--9-9-9-9-9-9-9-9----|

E|-------------------------------------|
B|-------------------------------------|
G|----------4-4-4-4-4-4-4-4-1111--9-9--|
D|----------2-2-2-2-2-2-2-2--9-9--7-7--|
A|-5-4-2-0--2-2-2-2-2-2-2-2--9-9--7-7--|
D|----------2-2-2-2-2-2-2-2--9-9--7-7--|

E|--------------------------------------------------------------------|
B|--------------------------------------------------------------------|
G|----------4-4-4-4-4-4-4-4-1111111111111111--7-7-7-7-7-7-7--6-7-9-11-|
D|----------2-2-2-2-2-2-2-2--9-9-9-9-9-9-9-9--5-5-5-5-5-5-5--4-5-7--9-|
A|-5-4-2-0--2-2-2-2-2-2-2-2--9-9-9-9-9-9-9-9--5-5-5-5-5-5-5--4-5-7--9-|
D|----------2-2-2-2-2-2-2-2--9-9-9-9-9-9-9-9--5-5-5-5-5-5-5--4-5-7--9-|

Outro
E|--------------------------------------------------------------------0-|(x1)
B|-------0--------0------------------------0--------------0-----------0-|
G|-----7--------7--------7---------2-----7--------------7------------11-|
D|------------0------------4---2-4-----0-----4-5----------------------9-|
A|---9-----------------0-----0------------------------4--------5---7--9-|
D|-9--------5--------0---------------5-----------5--4--------5---7----9-|

And thats it, the strumming patterns might be a little here and there.

12.  ONE-X – Tabbed By Jaames
Artist : Three Days Grace
Song   : One-X
Album  : One-X
Tuning : Drop D

Tabbed by jaames

Intro/verse (x3)
E|--------------------------------------------------------------------|
B|--------------------------------------------------------------------|
G|-----9-----9-----9-----9--------5------9-----9-----9-----9--------5-|
D|-/7-----7-----7-----7-----0--3-----/7-----7-----7-----0-----0--3----|
A|--------------------------------------------------------------------|
D|--------------------------------------------------------------------|

Pre-chorus (x1)
E|---------------------------------------------|
B|-------------------------------------6--5----|
G|----------7----------5------------7--------5-|
D|-------5----------3------------5-------------|
A|----5----------3------------5----------------|
D|-5----------3------------5-------------------|

Chorus (x1)                           Gtr.2 ends w/ this
E|-----------------------------------|------------------|
B|-----------------------------------|------------------|
G|-----------------------------------|----10---9--------|
D|-7--0--3--7--0--3--7--0--3--0---3--|------------10----|
A|-7--0--3--7--0--3--7--0--3--0---3--|------------------|
D|-7--0--3--7--0--3--7--0--3--0---3--|------------------|

Repeat Intro/verse and Pre-chorus.

Bridge Gtr.1 (x1)
E|-------------------------------------------------------|
B|-------------------------------------------------------|
G|-------------------------------------------------------|
D|-7-7-7-7-7-7-7-7-7-7-7-7-7-7-7-7---3---7---10---0---3--|
A|-7-7-7-7-7-7-7-7-7-7-7-7-7-7-7-7---3---7---10---0---3--|
D|-7-7-7-7-7-7-7-7-7-7-7-7-7-7-7-7---3---7---10---0---3--|

Solo Gtr.2 while Gtr.1 plays bridge (x1)                                 
E|-----------------------------------------------------------|
B|-------------------------3----------------------------3----|
G|-2-2-2-2/4-4-4-5-5-5-5-2---4--2-2-2-2-4-4-2-5-5-5-5-2---4--|
D|-----------------------------------------------------------|
A|-----------------------------------------------------------|
D|-----------------------------------------------------------|

E|-------------------------------------10-------10-12-13--|
B|-10-10-10-10-12-12-12-10-13-13-13-13----12-10-----------|
G|--------------------------------------------------------|
D|--------------------------------------------------------|
A|--------------------------------------------------------|
D|--------------------------------------------------------|

Then they keep repeating the chorus while Gtr.2 plays this.

Gtr.2
E|------------|
B|------------|
G|-12-10-9----|
D|---------10-|
A|------------|
D|------------|

And there you go, you can play the solo on the D-string if you want, but I
think it sounds better on the G-string and B-string.




comments
print report bad tab
7 comments total. Showing first comments.
0 reply
U B the band 5,209 wrote on May 14 2007, 01:04 pm

Sweet album tab! It's cool that you put everyones name, and I'm on there. You may have to up date "It's All Over" (ver 4) when I add the intro sounds soon.

0 reply
offspring_punk 1,284 wrote on May 14 2007, 03:41 pm

You didn't put the tabs for Let It Die or Time of Dying. You accidentally copied the wrong ones. Other than that, spot on. Good on you mate.

0 reply
systematication 335 wrote on May 14 2007, 07:16 pm

Yeah, I know the wrong one's went in. Please vote for my Other One-X Album tab waiting for approval. That one has all the correct songs. Also UB, Let me know when you add the intro and I'll update. Thanks for the comments

I want to post or [tab]
guest
You may want to rate the tab now too:
select rating
Please do not post tabs as comments. Select "correction" instead!