Oops, an error
Loading. Please wait.

One-X Bass Tab

version 1
version 1

Whole song

Interactive

1,859 views 3 this week
2 commentsread comments
1 2 3 4 5
1 last vote to show rating
add to favorites
launch autoscroll
font size
0
reset
guitar tuner
Autoscroll
slow
fast
+/-
esc
set tempo
stop
Help us to improve Ultimate-Guitar.com Take our survey!
×
Author
Difficulty
intermediate
Three Days Grace - One x
Album: One X

bass tab

by : doky 2007
taquilleros_de_sudamerica_maroyu_el_grupo_tropical_del_momento@hotmail.com

5-stringed bass
G D A E B

   INTRO
G-|-----------|
D-|-----------|
A-|-----------|
E-|-3----1----|
B-|-----------|
                                                                              

   CORO
G-|----------------|---------------|
D-|----------------|---------------|
A-|----------------|---------------|
E-|-555-----111111-|--------111111-|
B-|-----333--------|-333333--------|
                                                                              

   VERSO
G-|-----------------|--------------------|
D-|-----------------|--------------------|
A-|-----------------|----------5---------|
E-|-55---55---------|-55-----------------|
B-|-----------6--66-|------3-----33/6----|
                                                                              

   MIDDLE
G-|------------|----------------------------------|
D-|------------|----------------------------------|
A-|------------|----------------------------------|
E-|-5555555555-|-111111-555555-888888-------------|
B-|------------|----------------------333333-6----|
                                                                              

   BREAK
G-|--------------------|
D-|--------------------|
A-|--------------------|
E-|-5---------1--11111-|
B-|------5-------------|
                                                                              

   FIN
G-|-------------|----------|-----------------------------|-----------|
D-|-------------|----------|-----------------------------|-----------|
A-|-8-----------|----------|-----------------------------|-----------|
E-|-----10--8---|-88888888-|-888888-111111-555555-333333-|-----------|
B-|-------------|----------|-----------------------------|-1---------|
                                                                              
Le mando grandes salutos y congratulaciones Al Quimico que era profesor de quimica del
Instituto Americano, tambien fue profesor de mi curso QB 2004. y que ahora es director de
Secundaria, uuuuuhta que huaaaaaso.

doky2007
Suggest correction
Give kudos to tab author, rate the tab!
1 2 3 4 5
comments
print report bad tab
2 comments total.
0 reply
KSE69 61 Oct 25, 2008 02:50 PM

good tab but i wish it was in 4 string tabs.

0 reply
dominos 10 Nov 10, 2009 07:00 PM

not very good to me. there is no way there is enough notes there for that entire song

guest
You may want to rate the tab now too:
select rating
Wanna post a correction for this tab? Suggest correction