Oops, an error
Loading. Please wait.

One-X Tab

version 1
version 1

Whole song

Interactive

56,694 views 72 this week
21 commentsread comments
1 2 3 4 5
excellent!
x 33
add to favorites
launch autoscroll
font size
0
reset
how to read this tab
guitar tuner
Autoscroll
slow
fast
+/-
esc
set tempo
stop
Help us to improve Ultimate-Guitar.com Take our survey!
×
Author
Tuning
D A D G B E
Artist : Three Days Grace
Song   : One-X
Album  : One-X
Tuning : Drop D

Tabbed by jaames

Intro/verse (x3)
E|--------------------------------------------------------------------|
B|--------------------------------------------------------------------|
G|-----9-----9-----9-----9--------5------9-----9-----9-----9--------5-|
D|-/7-----7-----7-----7-----0--3-----/7-----7-----7-----0-----0--3----|
A|--------------------------------------------------------------------|
D|--------------------------------------------------------------------|

Pre-chorus (x1)
E|---------------------------------------------|
B|-------------------------------------6--5----|
G|----------7----------5------------7--------5-|
D|-------5----------3------------5-------------|
A|----5----------3------------5----------------|
D|-5----------3------------5-------------------|

Chorus (x1)                           Gtr.2 ends w/ this
E|-----------------------------------|------------------|
B|-----------------------------------|------------------|
G|-----------------------------------|----10---9--------|
D|-7--0--3--7--0--3--7--0--3--0---3--|------------10----|
A|-7--0--3--7--0--3--7--0--3--0---3--|------------------|
D|-7--0--3--7--0--3--7--0--3--0---3--|------------------|

Repeat Intro/verse and Pre-chorus.

Bridge Gtr.1 (x1)
E|-------------------------------------------------------|
B|-------------------------------------------------------|
G|-------------------------------------------------------|
D|-7-7-7-7-7-7-7-7-7-7-7-7-7-7-7-7---3---7---10---0---3--|
A|-7-7-7-7-7-7-7-7-7-7-7-7-7-7-7-7---3---7---10---0---3--|
D|-7-7-7-7-7-7-7-7-7-7-7-7-7-7-7-7---3---7---10---0---3--|

Solo Gtr.2 while Gtr.1 plays bridge (x1)                                 
E|-----------------------------------------------------------|
B|-------------------------3----------------------------3----|
G|-2-2-2-2/4-4-4-5-5-5-5-2---4--2-2-2-2-4-4-2-5-5-5-5-2---4--|
D|-----------------------------------------------------------|
A|-----------------------------------------------------------|
D|-----------------------------------------------------------|

E|-------------------------------------10-------10-12-13--|
B|-10-10-10-10-12-12-12-10-13-13-13-13----12-10-----------|
G|--------------------------------------------------------|
D|--------------------------------------------------------|
A|--------------------------------------------------------|
D|--------------------------------------------------------|

Then they keep repeating the chorus while Gtr.2 plays this.

Gtr.2
E|------------|
B|------------|
G|-12-10-9----|
D|---------10-|
A|------------|
D|------------|

And there you go, you can play the solo on the D-string if you want, but I
think it sounds better on the G-string and B-string.
Suggest correction
comments
print report bad tab
21 comments total. Showing first comments.
0 reply
RS-GUITARIST 114 wrote on June 20 2006, 08:15 pm

I think that this chord is played some where during the stand above the crowd part:

e-----------------
B-----------------
G--5--------------
D--5--------------
A--3--------------
D-----------------

its somewhere in there, but then again i might be wrong. I got the tone for 3DG and it sounds like its in there. -_-

0 reply
jaames 1,351 wrote on June 21 2006, 01:40 am

Ok, i'll check it out. I only put about half an hour into each 3dg song I tabbed, so there are probably a few things missing here and there.

0 reply
(SIC)(SIC)(SIC) 10 wrote on June 22 2006, 07:40 pm

great tab dude

guest
You may want to rate the tab now too:
select rating
Please do not post tabs as comments. Select "correction" instead!