Oops, an error
Loading. Please wait.

One-X Bass Tab

version 2
version 2

Whole song

Interactive

3,596 views 1 this week
no commentswrite comment
1 2 3 4 5
excellent!
x 3
add to favorites
launch autoscroll
font size
0
reset
guitar tuner
Autoscroll
slow
fast
+/-
esc
set tempo
stop
Help us to improve Ultimate-Guitar.com Take our survey!
×
Author
Track: One X
Artist: Three Days Grace
Album: One X

This is 100% correct or almost exactly right. i spent a whole 2 hours tabbing this song. thanx!

Intro/ Verse
0:38
G----------------------|
D----------------------|
A----------------------| (2x)
D-5-5-5~-3-3-3~--------|

Chorus
0:53
G----------------------|
D----------------------|
A----------------------| (3x)
D---7—0-333------------|

Right after chorus play this:
G-----------------------|
D-----------------------|
A-----------------------| (1x)
D----0---0----3~--------|

Verse pt 2
G-----------------------|
D-----------------------|
A-----------------------| (1x)
D--77---77---33---------|

G-----------------------|
D-----------------------|
A-----------------------|(1x)
D--77---00---33---------|

G-----------------------|
D-----------------------|
A-----------------------| (1x)
D--77---77---33---------|

G-----------------------|
D-----------------------|
A-----------------------|(1x)
D--77---00---33---------|

G-----------------------|
D-----------------------|
A-----------------------| (1x)
D--77---77---33---------|

G-----------------------|
D-----------------------|
A-----------------------|(1x)
D--77---00---33---------|

Prechorus:
G----------------------|
D----------------------|
A----------------------| (2x)
D-5-5-5~-3-3-3~--------|

Chorus
G----------------------|
D----------------------|
A----------------------| (3x)
D---7----0-333---------|

G-----------------------|
D-----------------------|
A-----------------------| (1x)
D----0---0----3~--------|

G----------------------|
D----------------------|
A----------------------| (3x)
D---7----0-333---------|

G-----------------------|
D-----------------------|
A-----------------------| (1x)
D----0---0----3~--------|

Bridge
G----------------------------------------------------|
D----------------------------------------------------|
A-0-0-0-0-0-0-0-0-0-0-0-0-0-0-0-0--------------------| (1x)
D----------------------------------------------------|


G-----------------------------------------------------|
D-----------------------------------------------------| (1x)
A-----------------------------------------------------| that’s  four tens
D---3333----7777----10101010----12-14-15~-------------|  and a 14 and a 15

G----------------------|
D----------------------|
A----------------------| (5x)
D---7----0-333---------|

G-----------------------|
D-----------------------|
A-----------------------| (1x)
D----0---0----3~--------|

G----------------------|
D----------------------|
A----------------------| (3x)
D---7----0-333---------|

G-----------------------|
D-----------------------|
A-----------------------| (2x)
D----0---0----3~--------|

Outro
G-------------------------------------------------------------------|
D-------------------------------------------------------------------|
A-------------------------------------------------------------------| (3x)
D-----10-10-10-10~---3-3-3-3~---7-7-7-7~---5-5-5-5~-----------------|

End on:
G----------|
D----------|
A----------|
D-10~------|
Suggest correction
Give kudos to tab author, rate the tab!
1 2 3 4 5
comments
print report bad tab
guest
You may want to rate the tab now too:
select rating
Please do not post tabs as comments. Select "correction" instead!