Oops, an error
Loading. Please wait.

One-X Tab

version 2
version 2

Whole song

Interactive

5,215 views 3 this week
1 commentread comment
1 2 3 4 5
x 10
add to favorites
launch autoscroll
font size
0
reset
how to read this tab
guitar tuner
Autoscroll
slow
fast
+/-
esc
set tempo
stop
Help us to improve Ultimate-Guitar.com Take our survey!
×
Author
Difficulty
Tuning
intermediate
D A D G B E
Three Days Grace - "One-X"
Album: One-X

Tabbed by: SICfreak91

A great song to end an album and one of my favorites overall. Yes, some of this is off 
(ver. 1) tab (espically the solo), however, I included it how it is in his tab onto my 
because ... well its completely correct, so i give credit to him for his work.

TUNING: Drop D

Note: I timed guitar 1 and 2 as close as I could


Intro: (clean)
|---------------------------------------------------------------|
|---------------------------------------------------------------|
|---9~---9~---9~---9~-----5~----9~---9~---9~-----9~-----5~------|
|-7----7----7----7----0-3-----7----7----7----7p0----0-3---------|
|---------------------------------------------------------------|
|---------------------------------------------------------------|x1


Verse 1: (clean)
|---------------------------------------------------------------|
|---------------------------------------------------------------|
|---9~---9~---9~---9~-----5~----9~---9~---9~-----9~-----5~------|
|-7----7----7----7----0-3-----7----7----7----7p0----0-3---------|
|---------------------------------------------------------------|
|---------------------------------------------------------------|x2


Pre-chorus 1: (clean)
|---------------------------------------------------------------|
|-------------------------6--5------5(A.H)----------------------|
|-----7~------5~------7~--------5~------------------------------|
|----5-------3-------5------------------------------------------|
|---5-------3-------5-------------------------------------------|
|-5~------3~------5~--------------------------------------------|


Chorus 1: (distorted)
Guitar 1:
|---------------------------------------------------------------|
|---------------------------------------------------------------|
|---------------------------------------------------------------|
|-777-000-33333333-------000-000-33333333-----------------------|
|-777-000-33333333-------000-000-33333333-----------------------|
|-777-000-33333333-(x3)--000-000-33333333-(x1)------------------|x1

Guitar 2:
|---------------------------------------------------------------|
|------------------------6~--5~---------------------------------|
|--------------------------------5~-----------------------------|
|-777-000-33333333----------------------------------------------|
|-777-000-33333333----------------------------------------------|
|-777-000-33333333-(x3)-------------(x1)------------------------|x1

----------------------------

Guitar 1:
|---------------------------------------------------------------|
|---------------------------------------------------------------|
|---------------------------------------------------------------|
|-777-000-33333333-------0~--0~--3~-----------------------------|
|-777-000-33333333-------0~--0~--3~-----------------------------|
|-777-000-33333333-(x3)--0~--0~--3~-(x1)------------------------|x1

Guitar 2:
|---------------------------------------------------------------|
|------------------------6~--5~---------------------------------|
|--------------------------------5~-----------------------------|
|-777-000-33333333----------------------------------------------|
|-777-000-33333333----------------------------------------------|
|-777-000-33333333(x3)--------------(x1)------------------------|x1


Verse 2: Same as Verse 1 (x3)

Pre-Chorus 2: Same as Pre-Chorus 1 with no A.H (x1)

Chorus 2: Same as Chorus 1


Pre-solo:
|---------------------------------------------------------------|
|-------------------------------5(A.H)--------------------------|
|---------------------------------------------------------------|
|-7-7-7-7-7-7-7-7-7-7-7-7-7777----------------------------------|
|-7-7-7-7-7-7-7-7-7-7-7-7-7777----------------------------------|
|-7-7-7-7-7-7-7-7-7-7-7-7-7777----------------------------------|
pm. . . . . . . . . . . . ....

Solo:
Guitar 1:
|---------------------------------------------------------------|
|--------------------------3-------------------------------3----|
|-2-2-2-2/4-4-4-5-5-5-5--2---4v---2-2-2-2-4-4-2-5-5-5-5--2---4v-|
|---------------------------------------------------------------|
|---------------------------------------------------------------|
|---------------------------------------------------------------|

Guitar 2:
|-----------------------------------------------------------------|
|-----------------------------------------------------------------|
|-----------------------------------------------------------------|
|-3-3-3-3-3-3-3-3-3-3-3-3-3-3-3--7-7-7-7-7-7-7-7-7-7-7-7-7-7-7----|
|-3-3-3-3-3-3-3-3-3-3-3-3-3-3-3--7-7-7-7-7-7-7-7-7-7-7-7-7-7-7----|
|-3-3-3-3-3-3-3-3-3-3-3-3-3-3-3--7-7-7-7-7-7-7-7-7-7-7-7-7-7-7----|

-----------------------------

Guitar 1:
|-------------------------------------------10-------10-12--13~---|
|-10-10-10-10-12-12-12-12-10-13-13-13-13-10----12v-10-------------|
|-----------------------------------------------------------------|
|-----------------------------------------------------------------|
|-----------------------------------------------------------------|
|-----------------------------------------------------------------|

Guitar 2:
|---------------------------------------------------------------|
|--10's---------------------------------------------------------|
|--V------------------------------------------------------------|
|-10-10-10-10-10-10-10-10-10-10-10-10-10-10-10-10----0~-0~--3~~-|
|-10-10-10-10-10-10-10-10-10-10-10-10-10-10-10-10----0~-0~--3~~-|
|-10-10-10-10-10-10-10-10-10-10-10-10-10-10-10-10----0~-0~--3~~-|


Re-intro: (clean)
|---------------------------------------------------------------|
|---------------------------------------------------------------|
|---9~---9~---9~---9~-----5~----9~---9~---9~-----9~-----5~------|
|-7----7----7----7----0-3-----7----7----7----7p0----0-3---------|
|---------------------------------------------------------------|
|---------------------------------------------------------------|x1

|---------------------------------------------------------------|
|---------------------------------------------------------------|
|---9~---9~---9~---9~\-5~---------------------------------------|
|-7----7----7----7---\-3~---------------------------------------|
|---------------------------------------------------------------|
|---------------------------------------------------------------|x1


Pre-chorus 3: (distorted)
|---------------------------------------------------------------|
|---------------------------------------------------------------|
|-------------------------------Pickslide-----------------------|
|-7~--0~--3~---7~--0~--3~-------V-------------------------------|
|-7~--0~--3~---7~--0~--3~---->>>>>>>>---------------------------|
|-7~--0~--3~---7~--0~--3~---->>>>>>>>---------------------------|


Chorus 3: Same as Chorus 1 (plus this at the end)
Guitar 1:
|---------------------------------------------------------------|
|-6~--5~--------------------------------------------------------|
|---------5~----------------------------------------------------|
|---------------------------------------------------------------|
|---------------------------------------------------------------|
|---------------------------------------------------------------|x1

Guitar 2:
|---------------------------------------------------------------|
|---------------------------------------------------------------|
|---------------------------------------------------------------|
|-7~--0~--3~----------------------------------------------------|
|-7~--0~--3~----------------------------------------------------|
|-7~--0~--3~----------------------------------------------------|x1


Outro:
Guitar 1:
|---------------------------------------------------------------|
|-8~------6~------5~----------------8~--6~--5~------------------|
|-------------------------5~-------------------5~---------------|
|---------------------------------------------------------------|
|---------------------------------------------------------------|
|---------------------------------------------------------------|x1

Guitar 2:
|-----------------------------------------------------------------|
|-----10's--------------------------------------------------------|
|----V------------------------------------------------------------|
|-10101010101010101010101010101010--3333333333333333--------------|
|-10101010101010101010101010101010--3333333333333333--------------|
|-10101010101010101010101010101010--3333333333333333--------------|x1

----------------------------

Guitar 1:
|---------------------------------------------------------------|
|-8~--6~--5~--------6~------5~----------------------------------|
|------------5~---------------------5~---------------4--5~------|
|---------------------------------------------------------------|
|---------------------------------------------------------------|
|---------------------------------------------------------------|x1

Guitar 2:
|---------------------------------------------------------------|
|---------------------------------------------------------------|
|---------------------------------------------------------------|
|-7777777777777777--10101010101010101010101010101010-9-10~------|
|-7777777777777777--10101010101010101010101010101010-9-10~------|
|-7777777777777777--10101010101010101010101010101010-9-10~------|x1

Repeat Outro x3
Suggest correction
comments
print report bad tab
1 comment total.
0 reply
RS-GUITARIST 114 Jul 06, 2006 10:31 AM

nice job, no there is no need for my tab :( lol

awsome tab. 3Dg rox.

guest
You may want to rate the tab now too:
select rating
Wanna post a correction for this tab? Suggest correction