Oops, an error
Loading. Please wait.

One-X Tab

version 3
version 3

Whole song

Interactive

1,967 views 1 this week
1 commentread comment
1 2 3 4 5
accurate
x 5
add to favorites
launch autoscroll
font size
0
reset
how to read this tab
guitar tuner
Autoscroll
slow
fast
+/-
esc
set tempo
stop
Help us to improve Ultimate-Guitar.com Take our survey!
×
Author
Difficulty
Tuning
novice
D A D G B E
  "One-X"

Hey,

	This is my first tab on the site, I did it purely by ear,
so If anythings wrong, let me know...Metal_Militia15@hotmail.com...Please Rate.


                         /=Slide Up
			 \=Slide Down
			Pm=Palm Mute
			 v=vibrato
                         _=Hold Note

Guitar 1: Drop D (D A D G B e)
Guitar 2: Drop D (D A D G B e)

Intro/verse (x3)

Guitar 1
E|--------------------------------------------------------------------|
A|--------------------------------------------------------------------|
G|-----9-----9-----9-----9--------5------9-----9-----9-----9--------5-|
D|--7-----7-----7-----7-----0--3------7-----7-----7-----0-----0--3----|
A|--------------------------------------------------------------------|
D|--------------------------------------------------------------------|

Pre-chorus (x1)

Guitar 1
E|---------------------------------------------|
B|-------------------------------------6--5----|
G|----------7----------5------------7--------5-|
D|-------5----------3------------5-------------|
A|----5----------3------------5----------------|
D|-5----------3------------5-------------------|
                                             _
Chorus (x2)

Guitar 1
E|------------------------------------------------------------|---------|
B|------------------------------------------------------------|---------|
G|------------------------------------------------------------|---------|
D|-777--000--33333333--777--000--33333333--777--000--33333333-|-0--5--3-|
A|-777--000--33333333--777--000--33333333--777--000--33333333-|-0--5--3-|
D|-777--000--33333333--777--000--33333333--777--000--33333333-|-0--5--3-|
                                                                      _
Guitar 2
E|------------------------------------------------------------|---------|
A|------------------------------------------------------------|---------|
D|------------------------------------------------------------|-10-9----|
G|-777--000--33333333--777--000--33333333--777--000--33333333-|------10-|
B|-777--000--33333333--777--000--33333333--777--000--33333333-|---------|
D|-777--000--33333333--777--000--33333333--777--000--33333333-|---------|
                                                                     _

Verse

Pre-Chorus

Chorus

Pre Solo

Guitar 1
E|---------------------------------|
B|---------------------------------|
G|---------------------------------|
D|-7-7-7-7-7-7-7-7-7-7-7-7-7-7-7-7-|
A|-7-7-7-7-7-7-7-7-7-7-7-7-7-7-7-7-|
D|-7-7-7-7-7-7-7-7-7-7-7-7-7-7-7-7-|

Solo

Guitar 1
E|---------------------|
B|---------------------|
G|---------------------|
D|-3---7---10---0---3--|
A|-3---7---10---0---3--|
D|-3---7---10---0---3--|

Guitar 2
E|------------------------------------------------------------|
B|-------------------------3------------------------------3---|
G|-2-2-2-2/4-4-4-5-5-5-5-2---4-4--2-2-2-2-4-4-2-5-5-5-5-2---4v|
D|------------------------------------------------------------|
A|------------------------------------------------------------|
D|------------------------------------------------------------|

E|-------------------------------------10--------10-12-13-|
B|-10-10-10-10-12-12-12-10-13-13-13-13----12v-10----------|
G|--------------------------------------------------------|
D|--------------------------------------------------------|
A|--------------------------------------------------------|
D|--------------------------------------------------------|


Guitar 1
E|--------------------------------------------------------------------|
A|--------------------------------------------------------------------|
G|-----9-----9-----9-----9--------5------9-----9-----9-----9--------5-|
D|--7-----7-----7-----7-----0--3------7-----7-----7-----0-----0--3----|
A|--------------------------------------------------------------------|
D|--------------------------------------------------------------------|

E|-------------------|
A|-------------------|
G|-----9-----9-----5-|
D|--7-----7-----7\-3-|
A|-------------------|
D|-------------------|

Guitar 2
E|-----------------------------------|
B|-----------------------------------|
G|-----------------------------\\\---|
D|-777--000--3-----777--000--3-\\\---|
A|-777--000--3-----777--000--3-------|
D|-777--000--3-----777--000--3-------|
                             _

Chorus


End Part

Guitar 1

E|--------------|
B|--------------|
G|--------------|
D|-333333333333-|
A|-333333333333-|
D|-333333333333-|
  Pm...........

Guitar 1
E|-------------------------------------------------------------------------|
B|-------------------------------------------------------------------------|
G|-------------------------------------------------------------------------|
D|-5555555555555555--33333333333333333--7777777777777777--3333333333333333-|
A|-5555555555555555--33333333333333333--7777777777777777--3333333333333333-|
D|-5555555555555555--33333333333333333--7777777777777777--3333333333333333-|

Guitar 2                                                                       X3

E|-------------------------------------------------------------------------|
B|-------------------------------------------------------------------------|
G|-12-10-9-----------12-10-9------------12-10-9-----------12-10-9----------|
D|-------------------------------------------------------------------------|
A|-------------------------------------------------------------------------|
D|-------------------------------------------------------------------------|


End With

E|---|
B|---|
G|---|
D|-5-|
A|-5-|
D|-5-|
   _
Suggest correction
comments
print report bad tab
1 comment total.
0 reply
gigson111 143 wrote on July 6 2006, 02:53 pm

this is like the same thing as all the other tabs

guest
You may want to rate the tab now too:
select rating
Please do not post tabs as comments. Select "correction" instead!