Oops, an error
Loading. Please wait.

One-X Tab

version 4
version 4

Album

Whole song

Interactive

1,117 views 3 this week
no commentswrite comment
1 2 3 4 5
accurate
x 2
add to favorites
launch autoscroll
font size
0
reset
how to read this tab
guitar tuner
Tab Pro tools
  • play this tab
  • loop segment
  • change instrument
  • show fretboard
  • metronome
×
Best way to learn
"One-x"
Autoscroll
slow
fast
+/-
esc
set tempo
stop
Contributor
Difficulty
Tuning
intermediate
D A D G B E
Artist: Three Days Grace
Album: One-X
Song: One-X
Tuning: Drop D (DADGBE)
 NOTE: THIS TAB AMY BE OUT OF ORDER IN SOME PLACES. I WILL ARRANGE THE ORDER AT THE 
OF THE TAB. THANK YOU.


  Intro (3X)
E]--0--0--0--0--0------------0---0--0--0--0---------]
B]--------------------------------------------------]
G]-2--2--2--2--2------5--0h2---2--2--2--2--------5--]
D]----------------0h3------------------------0h3----]
A]--------------------------------------------------]
D]--------------------------------------------------]

  Pre-chor.
E]---------------------------------------]
B]-------------------------------6p5-----]
G]--------7--------5--------7--------5~~-]
D]------5--------3--------5--------------]
A]----5--------3--------5----------------]
D]--5--------3--------5------------------]

  Chorus
E]-------------------------------------------]
B]-------------------------------------------]
G]-------------------------------------------]
D]-XX--7--0X--3--7--0X--3--7--0--3X--0X---3~-]
A]-XX--7--0X--3--7--0X--3--7--0--3X--0X---3~-]
D]-XX--7--0X--3--7--0X--3--7--0--3X--0X---3~-]
     PM....................................

      Gtr. 2 Chorus (Optional)
E]--------------------------------------------------]
B]----------------------------------------6p5-------]
G]----------------------------------------------5~~-]
D]--------------------------------------------------]
A]--------------------------------------------------]
D]--------------------------------------------------]

  Solo
E]---------------------------------------------------------------]
B]---------------------------3-----------------------------3-----]
G]--2-2-2-2h4-4-4-5-5-5-4-2-----4--p2-2-2-4-4-2-5-5-5p4-2----/4--]
D]---------------------------------------------------------------]
A]---------------------------------------------------------------]
D]---------------------------------------------------------------]

  Bridge
E]--------------------------------------------------------]
B]--------------------------------------------------------]
G]--------------------------------------------------------]
D]--7-7-7-7-7-7-7-7-7-7-7-7-7-7-7-X---3X--7---10--0---X3--]
A]--7-7-7-7-7-7-7-7-7-7-7-7-7-7-7-X---3X--7---10--0---X3--]
D]--7-7-7-7-7-7-7-7-7-7-7-7-7-7-7-X---3X--7---10--0---X3--]
   PM......................................................

ORDER
________

INTRO X3
PRECHOR X1
CHOR X1
BRIDGE/SOLO X1
CHOR X3
comments
We did not receive enough feedback on this tab! Please rate:
print report bad tab
1 2 3 4 5
I want to post or [tab]
guest
You may want to rate the tab now too:
select rating
Please do not post tabs as comments. Select "correction" instead!