Oops, an error
Loading. Please wait.

Operate Tab

version 1
version 1

Whole song

Interactive

7,159 views 12 this week
no commentswrite comment
1 2 3 4 5
excellent!
x 5
add to favorites
launch autoscroll
font size
0
reset
how to read this tab
guitar tuner
Tab Pro tools
  • play this tab
  • loop segment
  • change instrument
  • show fretboard
  • metronome
×
Best way to learn
"Operate"
Autoscroll
slow
fast
+/-
esc
set tempo
stop
Contributor
Difficulty
Tuning
intermediate
C G C F A D
-----------------------------------------------------------------------------
                        Three Days Grace - Operation
-----------------------------------------------------------------------------

Tabbed by: Metalrock4ever

Tuning: CGCFAD


Intro:
Guitar 1:
D|-----------------------|
A|-----------------------|
F|-9~-14~-12~-9~-14~-12~-|
C|-9~-14~-12~-9~-14~-12~-|<- You can palm mute this note (optional)
G|-7~-12~-10~-7~-12~-10~-|
C|-----------------------|

Guitar 2:
(Play after Part 1 plays their part once)
D|----------|
A|----------|
F|----------|
C|-2~-7~-5~-|
G|-2~-7~-5~-|
C|-2~-7~-5~-|

Riff:
D|-------------------------------|
A|-------------------------------|
F|-------0--------------0--------|
C|-2-2-----4------2-2-----4------|
G|-----2-----2--------2-----2-3~-|
C|-------------5~----------------|

Solo Part:
D|----------------7777-|
A|-5555-7777-8888------|
F|---------------------|
C|---------------------|  x2
G|---------------------|
C|---------------------|


Verse:
Solo Part:
D|----------------7777-|
A|-5555-7777-8888------|
F|---------------------|
C|---------------------|  x8
G|---------------------|
C|---------------------|

Riff:
(Play after the riff is played 4 times)
D|-------------------------------|
A|-------------------------------|
F|-------0--------------0--------|
C|-2-2-----4---1~-2-2-----4------|
G|-----2-----2--------2-----2-3~-|
C|-------------------------------|


Pre-Chorus:
D|----|
A|----|
F|-5~-|
C|-5~-|
G|-3~-|
C|----|


Chorus:
Guitar 1:
D|---------------------------------------------------------|
A|---------------------------------------------------------|
F|-9999-9999-14141414-12121212-9999-9999-14141414-12121212-|
C|-9999-9999-14141414-12121212-9999-9999-14141414-12121212-|
G|-7777-7777-12121212-10101010-7777-7777-12121212-10101010-|
C|---------------------------------------------------------|

Guitar 2:
(Play after Part 1 plays their part once)
D|---------------------|
A|---------------------|
F|---------------------|
C|-2222-2222-7777-5555-|
G|-2222-2222-7777-5555-|
C|-2222-2222-7777-5555-|


Pre-Verse:
D|-------------------------------|
A|-------------------------------|
F|-------0--------------0--------|
C|-2-2-----4------2-2-----4------|
G|-----2-----2--------2-----2-3~-|
C|-------------5~----------------|


Verse 2:
Guitar 1:
D|----------------7777-|
A|-5555-7777-8888------|
F|---------------------|
C|---------------------|  x8
G|---------------------|
C|---------------------|

Guitar 2:
(Listen carefully to the music to hear this part. Can be ignored)
D|-----------|
A|-----------|
F|-4----4----|
C|-----------|
G|-----------|
C|-----------|

Riff:
(Play after the riff is played 4 times)
D|-------------------------------|
A|-------------------------------|
F|-------0--------------0--------|
C|-2-2-----4---1~-2-2-----4------|
G|-----2-----2--------2-----2-3~-|
C|-------------------------------|


Chorus:
Guitar 1:
D|---------------------------------------------------------|
A|---------------------------------------------------------|
F|-9999-9999-14141414-12121212-9999-9999-14141414-12121212-|
C|-9999-9999-14141414-12121212-9999-9999-14141414-12121212-|
G|-7777-7777-12121212-10101010-7777-7777-12121212-10101010-|
C|---------------------------------------------------------|

Guitar 2:
(Play after Part 1 plays their part once)
D|---------------------|
A|---------------------|
F|---------------------|
C|-2222-2222-7777-5555-|
G|-2222-2222-7777-5555-|
C|-2222-2222-7777-5555-|


Pre-Verse:
D|-------------------------------|
A|-------------------------------|
F|-------0--------------0--------|
C|-2-2-----4------2-2-----4------|
G|-----2-----2--------2-----2-3~-|
C|-------------5~----------------|


Bridge:
Guitar 1:
D|---------------------|
A|---------------------|
F|------5555-6666-5555-|
C|-2222----------------|  x2
G|---------------------|
C|---------------------|

Guitar 2:
D|-12~-----12~-14~-|
A|-12~-13~-10~-12~-|
F|-----------------| 
C|-----------------|  x2
G|-----------------|
C|-----------------|


Final Chorus:
Guitar 1:
D|---------------------------------------------------------|
A|---------------------------------------------------------|
F|-9999-9999-14141414-12121212-9999-9999-14141414-12121212-|
C|-9999-9999-14141414-12121212-9999-9999-14141414-12121212-|   x2
G|-7777-7777-12121212-10101010-7777-7777-12121212-10101010-|
C|---------------------------------------------------------|

Guitar 2:
(Play after Part 1 plays their part once)
D|---------------------|
A|---------------------|
F|---------------------|
C|-2222-2222-7777-5555-|  x3
G|-2222-2222-7777-5555-|
C|-2222-2222-7777-5555-|


Outro:
D|------------------|
A|------------------|
F|-------0----------|
C|-2-2-----4---2-22-|
G|-----2-----2-2-22-|
C|-------------2-22-|

************************************ 

| / slide up 
| h hammer-on 
| ~ vibrato 
| + harmonic 
| x Mute note 

************************************ 

If you have any comments/corrections, please say in either the comments box or 
leave me a message. Good luck and enjoy!
comments
print report bad tab
I want to post or [tab]
guest
You may want to rate the tab now too:
select rating
Please do not post tabs as comments. Select "correction" instead!