Oops, an error
Loading. Please wait.

Over And Over Bass Tab

version 1
version 1

Whole song

Interactive

6,450 views 9 this week
no commentswrite comment
1 2 3 4 5
accurate
x 4
add to favorites
launch autoscroll
font size
0
reset
guitar tuner
Autoscroll
slow
fast
+/-
esc
set tempo
stop
Help us to improve Ultimate-Guitar.com Take our survey!
×
Contributor
Difficulty
doky 2,269
intermediate
Three Days Gace - Over & over
Album: One X

bass tab

by : doky 2007
taquilleros_de_sudamerica_maroyu_el_grupo_tropical_del_momento@hotmail.com

5-stringed bass
G D A E B

   VERSO
G-|-----------|
D-|-----------|
A-|-----------|
E-|-1---------|
B-|------3----|
                                                                              

   PRE-CORO
G-|----------------------------------|
D-|----------------------------------|
A-|----------------------3-----------|
E-|-666666--------111111-------0-----|
B-|--------333333--------------------|
                                                                              

   CORO 1
G-|----------------|-------------------*----|
D-|----------------|---------------5---*2---|
A-|-000-----333----|-000-----5---5-----*----|
E-|-----111-----33-|-----111-----------*----|
B-|----------------|-------------------*----|
                                                                              

   MIDDLE
G-|-----------------|------------------|---------------|
D-|-----------------|------------------|---------------|
A-|-222222-555555---|-222222-5555------|-222222--------|
E-|---------------5-|-------------5555-|--------3------|
B-|-----------------|------------------|---------------|
                                                                              
 
   BREAK
G-|-----------|
D-|-----------|
A-|-----------|
E-|-----------|
B-|-0000-8888-|
                                                                              

   CORO 2
G-|--------|----------------------|----------------|
D-|--------|-----------------74---|----------------|
A-|-555----|-222-----7---7--------|-222-----555----|
E-|-----55-|-----333--------------|-----333-----55-|
B-|--------|----------------------|----------------|
                                                                              

   FIN
G-|----------|
D-|----------|
A-|----------|
E-|-7--------|
B-|----------|

Les congratulo y saluto Al Gato, Alastorezaga y Al Mozo porque el 2003-2004 tan taras que eran
que les gustaba chacharse algunas mañanas y se escapaban por las canchas de atras del colegio
se trepaban un muro y saltaban a un terreno a medio construir, luego se salian por el garaje de
ese terreno. como a veces les pescaba les decia que no se vayan, como el pastor ps.

doky2007
comments
print report bad tab
I want to post or [tab]
guest
You may want to rate the tab now too:
select rating
Please do not post tabs as comments. Select "correction" instead!