Oops, an error
Loading. Please wait.

Over And Over Tab

version 1
version 1

Whole song

Interactive

39,707 views 27 this week
1 commentread comment
1 2 3 4 5
accurate
x 5
add to favorites
launch autoscroll
font size
0
reset
how to read this tab
guitar tuner
Tab Pro tools
  • play this tab
  • loop segment
  • change instrument
  • show fretboard
  • metronome
×
Best way to learn
"Over And Over"
Autoscroll
slow
fast
+/-
esc
set tempo
stop
Contributor
Three Days Grace/One - X/Over And Over

Tune down 1 step DGCFAD

Intro (x2)

D|-----------------------------------|
A|----------0---------------0--------|
F|------0-----2-0-------0-----2-0----|
C|----0---0-------0---0---0-------0--|
G|-----------------------------------|
D|--3---------------3----------------|

D|-----------------------------------|
A|----------0---------------0--------|
F|------------2-0-------------2-0----|
C|------2---------------2------------|
G|----2---2-------2---2---2-------2--|
D|--0---------------0----------------|

Verse 1

D|-----------------------------------|\
A|----------0---------------0--------||
F|------0-----2-0-------0-----2-0----||
C|----0---0-------0---0---0-------0--||
G|-----------------------------------||
D|--3---------------3----------------||
                                      | x3
D|-----------------------------------||
A|----------0---------------0--------||
F|------------2-0-------------2-0----||
C|------2---------------2------------||
G|----2---2-------2---2---2-------2--||
D|--0---------------0----------------|/

D|-----------------------------------|
A|-----------------------------------|
F|--5-5-5-5-5-5-5-5------------------|
C|--5-5-5-5-5-5-5-5-2-2-2-2-2-2-2-2--|
G|--3-3-3-3-3-3-3-3-2-2-2-2-2-2-2-2--|
D|------------------0-0-0-0-0-0-0-0--|

D|-----------------------------------|
A|-----------------------------------|
F|--------------------------6--------|
C|--5-5-5-5-5-5-5-5-7-------4--------|
G|--5-5-5-5-5-5-5-5-5-------4--------|
D|--3-3-3-3-3-3-3-3-5----------------|

Chorus

D|-----------------------------------|
A|-----------------------------------|
F|-----------------------------------|
C|--9-9-9-9----9-----5-5-5-5----5----|
G|--9-9-9-9----9-----5-5-5-5----5----|
D|--7-7-7-7----7-----3-3-3-3----3----|

D|-----------------------------------|
A|-----------------------------------|
F|-----------------------------------|
C|--7---7---7---7-----7-----7--------|
G|--5---5---5---5-----7-----7--------|
D|--5---5---5---5-----5-----5--------|

D|-----------------------------------|
A|-----------------------------------|
F|-----------------------------------|
C|--9-9-9-9----9-----5-5-5-5----5----|
G|--9-9-9-9----9-----5-5-5-5----5----|
D|--7-7-7-7----7-----3-3-3-3----3----|

D|-----------------------------------|
A|-----------------------------------|
F|--9---9---9---9---9-----6----------|
C|--9---9---9---9---7-----4----------|
G|--7---7---7---7---7-----4----------|
D|-----------------------------------|

Intro (x1)

D|-----------------------------------|
A|----------0---------------0--------|
F|------0-----2-0-------0-----2-0----|
C|----0---0-------0---0---0-------0--|
G|-----------------------------------|
D|--3---------------3----------------|

D|-----------------------------------|
A|----------0---------------0--------|
F|------------2-0-------------2-0----|
C|------2---------------2------------|
G|----2---2-------2---2---2-------2--|
D|--0---------------0----------------|

Verse 2

D|-----------------------------------|\
A|----------0---------------0--------||
F|------0-----2-0-------0-----2-0----||
C|----0---0-------0---0---0-------0--||
G|-----------------------------------||
D|--3---------------3----------------||
                                      | x2
D|-----------------------------------||
A|----------0---------------0--------||
F|------------2-0-------------2-0----||
C|------2---------------2------------||
G|----2---2-------2---2---2-------2--||
D|--0---------------0----------------|/

D|-----------------------------------|
A|-----------------------------------|
F|--5-5-5-5-5-5-5-5------------------|
C|--5-5-5-5-5-5-5-5-2-2-2-2-2-2-2-2--|
G|--3-3-3-3-3-3-3-3-2-2-2-2-2-2-2-2--|
D|------------------0-0-0-0-0-0-0-0--|

D|-----------------------------------|
A|-----------------------------------|
F|--------------------------6--------|
C|--5-5-5-5-5-5-5-5-7-------4--------|
G|--5-5-5-5-5-5-5-5-5-------4--------|
D|--3-3-3-3-3-3-3-3-5----------------|

Chorus

D|-----------------------------------|
A|-----------------------------------|
F|-----------------------------------|
C|--9-9-9-9----9-----5-5-5-5----5----|
G|--9-9-9-9----9-----5-5-5-5----5----|
D|--7-7-7-7----7-----3-3-3-3----3----|

D|-----------------------------------|
A|-----------------------------------|
F|-----------------------------------|
C|--7---7---7---7-----7-----7--------|
G|--5---5---5---5-----7-----7--------|
D|--5---5---5---5-----5-----5--------|

D|-----------------------------------|
A|-----------------------------------|
F|-----------------------------------|
C|--9-9-9-9----9-----5-5-5-5----5----|
G|--9-9-9-9----9-----5-5-5-5----5----|
D|--7-7-7-7----7-----3-3-3-3----3----|

D|-----------------------------------|
A|-----------------------------------|
F|--9---9---9---9---9-----6----------|
C|--9---9---9---9---7-----4----------|
G|--7---7---7---7---7-----4----------|
D|-----------------------------------|

D|-----------------------------------|
A|-----------------------------------|
F|-----------------------------------|
C|--9-9-9-9----9-----5-5-5-5----5----|
G|--9-9-9-9----9-----5-5-5-5----5----|
D|--7-7-7-7----7-----3-3-3-3----3----|

D|-----------------------------------|
A|-----------------------------------|
F|-----------------------------------|
C|--7---7---7---7-----7-----7--------|
G|--5---5---5---5-----7-----7--------|
D|--5---5---5---5-----5-----5--------|

D|-----------------------------------|
A|-----------------------------------|
F|-----------------------------------|
C|--9-9-9-9----9-----5-5-5-5----5----|
G|--9-9-9-9----9-----5-5-5-5----5----|
D|--7-7-7-7----7-----3-3-3-3----3----|

D|-----------------------------------|
A|-----------------------------------|
F|--9---9---9---9---9----------------|
C|--9---9---9---9---7----------------|
G|--7---7---7---7---7----------------|
D|-----------------------------------|

Bridge

D|-----------------------------------|
A|-----------------------------------|
F|--6---6---6---6---6---6---6---6----|
C|--6---6---6---6---6---6---6---6----|
G|--4---4---4---4---4---4---4---4----|
D|-----------------------------------|
D|-----------------------------------|
A|-----------------------------------|
F|--9---9---9---9---9---9---9---9----|
C|--9---9---9---9---9---9---9---9----|
G|--7---7---7---7---7---7---7---7----|
D|-----------------------------------|

D|-----------------------------------|
A|-----------------------------------|
F|--6---6---6---6---6---6---6---6----|
C|--6---6---6---6---6---6---6---6----|
G|--4---4---4---4---4---4---4---4----|
D|-----------------------------------|

D|-----------------------------------|
A|-----------------------------------|
F|--9---9---9---9---4----------------|
C|--9---9---9---9---4----------------|
G|--7---7---7---7---2----------------|
D|-----------------------------------|


D|-----------------------------------|
A|-----------------------------------|
F|--6---6---6---6---6---6---6---6----|
C|--6---6---6---6---6---6---6---6----|
G|--4---4---4---4---4---4---4---4----|
D|-----------------------------------|
D|-----------------------------------|
A|-----------------------------------|
F|--9---9---9---9---9---9---9---9----|
C|--9---9---9---9---9---9---9---9----|
G|--7---7---7---7---7---7---7---7----|
D|-----------------------------------|

D|-----------------------------------|
A|-----------------------------------|
F|--6---6---6---6---6---6---6---6----|
C|--6---6---6---6---6---6---6---6----|
G|--4---4---4---4---4---4---4---4----|
D|-----------------------------------|

D|-----------------------------------|
A|-----------------------------------|
F|--9--------------------------------|
C|--9--------------------------------|
G|--7--------------------------------|
D|-----------------------------------|

Chorus

End

D|-----------------------------------|
A|-----------------------------------|
F|--6--------------------------------|
C|--6--------------------------------|
G|--4--------------------------------|
D|-----------------------------------|
comments
print report bad tab
1 comment total.
0 reply
xBillie wrote on August 31 2014, 09:47 pm

It sounds good but it's really complicated, look at jamees version

I want to post or [tab]
guest
You may want to rate the tab now too:
select rating
Please do not post tabs as comments. Select "correction" instead!