Oops, an error
Loading. Please wait.

Over And Over Bass Tab

version 2
version 2

Whole song

Interactive

2,136 views 3 this week
no commentswrite comment
1 2 3 4 5
x 3
add to favorites
launch autoscroll
font size
0
reset
guitar tuner
Autoscroll
slow
fast
+/-
esc
set tempo
stop
Help us to improve Ultimate-Guitar.com Take our survey!
×
Author
Difficulty
Tuning
novice
D A D G B E
Since there were no bass tabs with four strings I thought I'd give it a shot ^.^

Drop D Tuning

Intro:
G|------------------|
D|------------------|
A|------------------|
D|--3~-3~-0~-0~-23~-|

Pre-Chorus:
G|-----------------|-----------------|----------------------|
D|-----------------|-----------------|----------------------|
A|-----------------|-----------------|-----------------3----|
D|-8-8-8-8-8-8-8-8-|-0-0-0-0-0-0-0-0-|-3-3-3-3-3-3-3-3---2~-|

Chorus:
G|---------------------|----------------------|
D|---------------------|----------------------|
A|-------------33333x--|----------------------|
D|-77777-33333-------5-|-77777-33333-00005-2~-|

Bridge:
G|---------------------------------|
D|---------------------------------|
A|-2-2-2-2-2-2-2-2-----------------|
D|-----------------0-0-0-0-0-0-0-0-|


Suggest correction
Give kudos to tab author, rate the tab!
1 2 3 4 5
comments
print report bad tab
guest
You may want to rate the tab now too:
select rating
Wanna post a correction for this tab? Suggest correction