Oops, an error
Loading. Please wait.

Over And Over Tab

version 4
version 4

Whole song

Interactive

459 views 1 this week
3 commentsread comments
1 2 3 4 5
x 3
add to favorites
launch autoscroll
font size
0
reset
how to read this tab
guitar tuner
Autoscroll
slow
fast
+/-
esc
set tempo
stop
Help us to improve Ultimate-Guitar.com Take our survey!
×
Author
Difficulty
Tuning
novice
D A D G B E
Just different tabs with distortion

Pre-chorus (x1)
E|---------------------------------------------------------------------------|
B|---------------------------------------------------------------------------|
G|---------------------------------------------------------------------------|
D|-7-7-7-7-7-7-7-7------0-0-0-0-0-0-0-0------3-3-3-3-3-3-3-3----10--2--------|
A|-7-7-7-7-7-7-7-7------0-0-0-0-0-0-0-0------3-3-3-3-3-3-3-3----10--2--------|
D|-7-7-7-7-7-7-7-7------0-0-0-0-0-0-0-0------3-3-3-3-3-3-3-3----10--2--------|

Chorus (x1)
E|---------------------------------------------------------------------------|
B|---------------------------------------------------------------------------|
G|---------------------------------------------------------------------------|
D|-7-7-7-7------3-3-3-3-----10-10------5-5-5---------------------------------|
A|-7-7-7-7------3-3-3-3-----10-10------5-5-5---------------------------------|
D|-7-7-7-7------3-3-3-3-----10-10------5-5-5---------------------------------|

E|--------------------------------------------------------------------------|
B|--------------------------------------------------------------------------|
G|--------------------------------------------------------------------------|
D|-7-7-7-7------3-3-3-3------0-0-0-0------5--2------------------------------|
A|-7-7-7-7------3-3-3-3------0-0-0-0------5--2------------------------------|
D|-7-7-7-7------3-3-3-3------0-0-0-0------5--2------------------------------|

Bridge (x2)
E|--------------------------------------------------------------------------|
B|--------------------------------------------------------------------------|
G|--------------------------------------------------------------------------|
D|-9-9-9-9-9-9-9-9------0-0-0-0-0-0-0-0-----9-9-9-9-9-9-9-9-----0-0-0-0-----|
A|-9-9-9-9-9-9-9-9------0-0-0-0-0-0-0-0-----9-9-9-9-9-9-9-9-----0-0-0-0-----|
D|-9-9-9-9-9-9-9-9------0-0-0-0-0-0-0-0-----9-9-9-9-9-9-9-9-----0-0-0-0-----|

E|--------------------------------------------------------------------------|
B|--------------------------------------------------------------------------|
G|--------------------------------------------------------------------------|
D|-7-7-7-7-----9-9-9-9-9-9-9-9-----0-0-0-0-0-0-0-0-----9-9-9-9-9-9-9-9------|
A|-7-7-7-7-----9-9-9-9-9-9-9-9-----0-0-0-0-0-0-0-0-----9-9-9-9-9-9-9-9------|
D|-7-7-7-7-----9-9-9-9-9-9-9-9-----0-0-0-0-0-0-0-0-----9-9-9-9-9-9-9-9------|

E|--------------------------------------------------------------------------|
B|--------------------------------------------------------------------------|
G|--------------------------------------------------------------------------|
D|-0-0----------------------------------------------------------------------|
A|-0-0----------------------------------------------------------------------|
D|-0-0----------------------------------------------------------------------|

Last chorus
E|--------------------------------------------------------------------------|
B|--------------------------------------------------------------------------|
G|--------------------------------------------------------------------------|
D|-9-9-9-9-----5-5-5-5----12-12-----7-7-7-----9-9-9-9-----5-5-5-5---2-2-2-2-|
A|-9-9-9-9-----5-5-5-5----12-12-----7-7-7-----9-9-9-9-----5-5-5-5---2-2-2-2-|
D|-9-9-9-9-----5-5-5-5----12-12-----7-7-7-----9-9-9-9-----5-5-5-5---2-2-2-2-|

E|--------------------------------------------------------------------------|
B|--------------------------------------------------------------------------|
G|--------------------------------------------------------------------------|
D|-7--4-----9-9-9-9-----5-5-5-5----12-12-----7-7-7-----9-9-9-9-----5-5-5-5--|
A|-7--4-----9-9-9-9-----5-5-5-5----12-12-----7-7-7-----9-9-9-9-----5-5-5-5--|
D|-7--4-----9-9-9-9-----5-5-5-5----12-12-----7-7-7-----9-9-9-9-----5-5-5-5--|

E|--------------------------------------------------------------------------|
B|--------------------------------------------------------------------------|
G|--------------------------------------------------------------------------|
D|-2-2-2-2-----7--4--9------------------------------------------------------|
A|-2-2-2-2-----7--4--9------------------------------------------------------|
D|-2-2-2-2-----7--4--9------------------------------------------------------|


Thank you for attention.
Suggest correction
Give kudos to tab author, rate the tab!
1 2 3 4 5
comments
print report bad tab
3 comments total.
0 reply
HH_Emo_666 242 Aug 22, 2012 03:18 PM

where the hell is the lead guitar? let alone the guitar for the intro? this sucks

-1 reply
guitargiantstar 31 Sep 01, 2012 07:20 AM

 E|------------------------------------------------------
B|------------------------------------------------------
G|-------------2----------------------------------------
D|-3--------------3-------------------------------------
A|--3----3-----------3----------------------------------
D|----3-----------------3-------------------------------

0 reply
xBillie 20 Aug 31, 2014 09:30 PM

Lack of accuracy. Tab incomplete.

guest
You may want to rate the tab now too:
select rating
Wanna post a correction for this tab? Suggest correction