Oops, an error
Loading. Please wait.

Overrated Tab

version 1
version 1

Whole song

Interactive

13,232 views 27 this week
3 commentsread comments
1 2 3 4 5
accurate
x 8
add to favorites
launch autoscroll
font size
0
reset
how to read this tab
guitar tuner
Tab Pro tools
  • play this tab
  • loop segment
  • change instrument
  • show fretboard
  • metronome
×
Best way to learn
"Overrated"
Autoscroll
slow
fast
+/-
esc
set tempo
stop
Contributor
Tabbed by: Alex Pavlov 
Tuning: Dropped D, 1 whole step down. (C,G,C,F,A,D) 
Another awesome song by Three Days Grace. The 2nd guitar is optional;
it’s just for the background. If someone tabs Take Me Under, let me know.

Intro 
|--------------------------------------------------- 
|--------------------------------------------------- 
|--------------------------------------------------- 
|--------------------------------------------------- 
|-----------8-7----10-8-7--------------------------- 
|--0-8-7-0------7----------7-10-8-7-8---------------


Verse (x5) 
Gtr.1 
|--------------------------------------------------------------------------- 
|----------------------------------------------------------------------------
|----------------------------------------------------------------------------
|--7---7---7-----5---5-----------------7---7---7----5--5---------------------
|--5---5---3-----7---7/-5---------0-3/-7-------3----7--7/-5-------0-3--------
|--0----------------------------3------0------------------------3------------
Gtr.2 (optional) 
|-------------------------------------------------- 
|-------------------------------------------------- 
|-------------------------------------------------- 
|--0------------------------------------0---------- 
|--0------------------------------------0----------
|--0------------------------------------0----------


Chorus 
|-------------------------------------------- 
|-------------------------------------------- 
|-------------------------------------------- 
|--0-0---10-10---5-5---3---------------------
|--0-0---10-10---5-5---3------0-3------------ 
|--0-0---10-10---5-5---3----3---------------- 


Pre-verse – Gtr. 1 
|------------------------------------------------------------- 
|--5-6--5-6--5-6--5-6--5-6--5-6--5-6--5-6--------------------- 
|------------------------------------------------------------- 
|------------------------------------------------------------- 
|------------------------------------------------------------- 
|------------------------------------------------------------- 
Gtr. 2 
|--------------------------------------------- 
|---------------------------------------------
|--------------------------------------------- 
|--0------------------------------------------ 
|--0------------------------------------------ 
|--0------------------------------------------ 


Verse (x4) 
Gtr.1 
|----------------------------------------------------------------------------
|----------------------------------------------------------------------------
|----------------------------------------------------------------------------
|--7---7---7-----5---5------------------7---7---7----5--5--------------------
|--5---5---3-----7---7/-5----------0-3/-7-------3----7--7/-5-------0-3-------
|--0-----------------------------3------0------------------------3-----------
Gtr. 2 
|--------------------------------------------------------------------------- 
|--5-----------------3-----6--------------5-----------3--------6------------ 
|--------------------------------------------------------------------------- 
|--------------------------------------------------------------------------- 
|--------------------------------------------------------------------------- 
|--------------------------------------------------------------------------- 


Chorus 


Bridge 
|--------------------------------------------- 
|--------------------------------------------- 
|--------------------------------------------- 
|--0------------------------------------------ 
|--0------------------------------------------ 
|--0------------------------------------------ 


Intro Riff (palm muted the first two times)


Chorus 

End With (and use whammy bar to slowly lower the pitch with each strum) 
|--------------------------------------------------------------------------- 
|--------------------------------------------------------------------------- 
|---------------------------------------------------------------------------
|--0--0--0--0--0--0--0--0--0--0--0--0--0--0--0--0--0--0--0--0--------------- 
|--0--0--0--0--0--0--0--0--0--0--0--0--0--0--0--0--0--0--0--0--------------- 
|--0--0--0--0--0--0--0--0--0--0--0--0--0--0--0--0--0--0--0--0---------------

And there it is. E-mail me @ dragin22@hotmail.com.
comments
print report bad tab
3 comments total.
0 reply
ajc wrote on November 19 2003, 12:00 am

spot on, although i prefer to play the intro

|---------------------------------------------------
|---------------------------------------------------
|---------------------------------------------------
|---------------------------------------------------
|-----------8-7-0--10-8-7-0-------------------------
|--0-8-7-0-------------------10-8-7-8---------------

0 reply
ferius wrote on January 7 2004, 12:00 am

Yes, ajc is right, it's much easier to play intro like he said!
But your tab is nice, Alex!

0 reply
guitar_man_23 wrote on April 10 2009, 11:49 am

i listened to the song and it sounds like the intro is played 4 times. but over all, its a good tab

I want to post or [tab]
guest
You may want to rate the tab now too:
select rating
Please do not post tabs as comments. Select "correction" instead!