Oops, an error
Loading. Please wait.

Pain Bass Tab

version 2
version 2

Whole song

21,359 views 1 this week
1 commentread comment
1 2 3 4 5
x 14
add to favorites
launch autoscroll
font size
0
reset
guitar tuner
Autoscroll
slow
fast
+/-
esc
set tempo
stop
Help us to improve Ultimate-Guitar.com Take our survey!
×
Difficulty
Tuning
intermediate
D A D G B E
----------------------------------------------------------------------------
			     Pain - Three Days Grace
----------------------------------------------------------------------------

Tabbed By : Bassfreak_2007  please rate!

    This Is very accurate and i'm sure, 100% ,There's Not much to this song
Tuning:Drop D

Verse

G|--------------------------------------------------------------------------|
D|--------------------------------------------------------------------------|
A|-------2-3-2-0-----------------2-3-2-0-----------------2-3-2-0------------|
D|-2--2-----------5--0-----2--2-----------7--0-----2--2-----------5--0------|

G|--------------------------------------------------------------------------|
D|--------------------------------------------------------------------------|
A|--------------------------------------------------------------------------|
D|-10-10-10-10-10-12-12-12-12-12--------------------------------------------|

Then... Play this part 4x

G|--------------------------------------------------------------------------|
D|--------------------------------------------------------------------------|
A|---------------------------4-4-4-4----------------------------------------|
D|-2-2-2-2--1-1-1-1--0-0-0-0------------------------------------------------|

Then After That   Play this part 2x
G|--------------------------------------------------------------------------|
D|--------------------------------------------------------------------------|
A|-------2-3-2-0-----------------2-3-2-0-----------------2-3-2-0------------|
D|-2--2-----------5--0-----2--2-----------7--0-----2--2-----------5--0------|

G|--------------------------------------------------------------------------|
D|--------------------------------------------------------------------------|
A|--------------------------------------------------------------------------|
D|-10-10-10-10-10-12-12-12-12-12--------------------------------------------|

Play This Part 3x

G|--------------------------------------------------------------------------|
D|--------------------------------------------------------------------------|
A|---------------------------4-4-4-4----------------------------------------|
D|-2-2-2-2--1-1-1-1--0-0-0-0------------------------------------------------|

Then... Play this part 2x

G|--------------------------------------------------------------------------|
D|--------------------------------------------------------------------------|
A|-------2-3-2-0-----------------2-3-2-0-----------------2-3-2-0------------|
D|-2--2-----------5--0-----2--2-----------7--0-----2--2-----------5--0------|

G|--------------------------------------------------------------------------|
D|--------------------------------------------------------------------------|
A|--------------------------------------------------------------------------|
D|-10-10-10-10-10-12-12-12-12-12--------------------------------------------|

Then Again

G|--------------------------------------------------------------------------|
D|--------------------------------------------------------------------------|
A|--------------------------------------------------------------------------|
D|-10-10-10-10-10-12-12-12-12-12--------------------------------------------|

Then...

G|--------------------------------------------------------------------------|
D|--------------------------------------------------------------------------|
A|--------------------------------------------------------------------------|
D|-10-10-10-10-10-12-12-12-12-12--------------------------------------------|

G|--------------------------------------------------------------------------|
D|--------------------------------------------------------------------------|
A|--------------------------------------------------------------------------|
D|-15\--10-10-10-10-10-12-12-12-12-12---------------------------------------|

G|--------------------------------------------------------------------------|
D|--------------------------------------------------------------------------|
A|--------------------------------------------------------------------------|
D|-10-10-10-10-10-12-12-12-12-12--------------------------------------------|

G|--------------------------------------------------------------------------|
D|--------------------------------------------------------------------------|
A|--------------------------------------------------------------------------|
D|-10-10-10-10-10-12-12-12-12-12--------------------------------------------|

outro

G|--------------------------------------------------------------------------|
D|--------------------------------------------------------------------------|
A|-------2-3-2-0-----------------2-3-2-0-----------------2-3-2-0------------|
D|-2--2-----------5--0-----2--2-----------7--0-----2--2-----------5--0------|

G|--------------------------------------------------------------------------|
D|--------------------------------------------------------------------------|
A|--------------------------------------------------------------------------|
D|-10-10-10-10-10-12-12-12-12-12--------------------------------------------|

G|--------------------------------------------------------------------------|
D|--------------------------------------------------------------------------|
A|-------2-3-2-0-----------------2-3-2-0-----------------2-3-2-0------------|
D|-2--2-----------5--0-----2--2-----------7--0-----2--2-----------5--0------|

G|--------------------------------------------------------------------------|
D|--------------------------------------------------------------------------|
A|--------------------------------------------------------------------------|
D|-10-10-10-10-10-12-12-12-12-12--------------------------------------------|

Then just one more time

G|--------------------------------------------------------------------------|
D|--------------------------------------------------------------------------|
A|--------------------------------------------------------------------------|
D|-10-10-10-10-10-12-12-12-12-12--------------------------------------------|

now were done I worked Really hard on this tab, so rate!

| /  slide up
| \  slide down
| h  hammer-on
| p  pull-off
| ~  vibrato
| +  harmonic
| x  Mute note
============================================================================
Suggest correction
comments
print report bad tab
1 comment total.
0 reply
amateis1991 10 Jul 19, 2008 01:00 AM

you have the timing down, but the positions are way off. the third version of this is much more accurate in terms of fret positions.

guest
You may want to rate the tab now too:
select rating
Wanna post a correction for this tab? Suggest correction